A Sister's Social Agony Tab

More Camera Obscura Tabs

Artist: Camera Obscura
 Album: Underachievers Please Try Harder
  Song: A Sister's Social Agony

Tabbed by: James ("Middle_Fidelity" from http://www.bowlie.com/forum/)



Intro:

  D                  Bm           G            A
E|---------10-------|------7-----|------3-----|------5------|
B|------10----10----|----7---7---|----3---3---|----5---5----|
G|---11----------11-|--7-------7-|--4-------4-|--6-------6-:|
D|12----------------|9-----------|5-----------|7-----------:| x3
A|------------------|------------|------------|-------------|
E|------------------|------------|------------|-------------|

  D                  G     A      D
E|---------10-------|------------|---------10-------|
B|------10----10----|----3-----5-|------10----10----|
G|---11----------11-|--4-----6---|---11----------11-|
D|12----------------|5-----7-----|12----------------|
A|------------------|------------|------------------|
E|------------------|------------|------------------|


[verse]
    D             Bm        G       A
you bruise like a cherry my darling girl
D               Bm         G            A
words they mean nothing to some in this world
D             Bm                G        A
I want you to know I thought of you last night
D            G  A  D
and I cried.


[verse]
D          Bm             G        A
play indie rock if that's what you want
D                Bm            G             A
quote Mike Leigh films it will turn them all on
D                   Bm       G       A
I heard that you're going on a first date
            D     G  A  D  D7
well that's great


[chorus]
G      A   D  D
don't apologize
G        A        D      D7
try your best not to despise
G      A     Bm    C
to get misty eyed
                  Bm
you know that its fine
                  A
you know that its fine

D Bm G A x3
D A G D7


[verse]
D                  Bm              G    A
sometimes it feels like you're the only one
D           Bm             G            A
a freckle appeared on your lip from the sun
D                   Bm              G       A
those kids that you hang with, they put you down
        D     A  G  D7
make no sound


#----------------------------PLEASE NOTE-----------------------------#
# This represents the author's own work and interpretation of the    #
# song. To be used only for private study, scholarship, or research. #
#--------------------------------------------------------------------#

blog comments powered by Disqus