#----------------------------PLEASE NOTE-----------------------------#
# This represents the author's own work and interpretation of the    #
# song. To be used only for private study, scholarship, or research. #
#--------------------------------------------------------------------#

Artist: Califone
  Song: Fisherman's Wife

[http://www.indieguitartabs.com/bands/califone/fishermans_wife.html]

Tabbed by: Evan Simko-Bednarski

This is my first tab...
I may have embellished here or there, and Rutili definitely plays this in a different 
way with a slide in some videos, but this is the most satisfying way I've found to 
play it.

Tuning: E B E G# B E
 
"There's no..."

verse (x2)
E-------------------------------------------------------
B-------------------------------------------------------
G#------------------------------------------------------
E--2h4--4---4-2p0---2h4-4-0-2-0-----0-----0------0-----0
B--0----0-----------0-------0----0h2-2p0--0---0h2-2p0--0
E--0----0---------0-0-------0-----------0-0----------0-0
  "Light in the window, no holes in the plot..."

Chorus (x2)
E--------------------------------------------
B--------------------------------------------
G#-7-7----7/3-3------------------------------
E--0-0------0-0--2-2-2h4-0---0----0-----0----
B--0-0------0-0--0-0---0--0h2-2p0----0h2-2p0-
E--------------------------------0----------0
"Fisherman's Wife...."


Bridge (x2)
E-----------------------------------
B-----------------------------------
G#----------------------------------
E--2h4-4-4--4p2p0----0-----0-------0
B--0---0-0-----------0--0h2-2p0----0
E--0---0-0-------0---0---------0---0
"No Light, No Light"