Michigan Girls Tab

More Califone Tabs

Artist: Califone
  Song: Michigan Girls

Tabbed by: Evan Simko-Bednarski

Again, I've embellished/simplified as I've gone along. Some of the trademark sounds on 
this song are actually a plucked fiddle, 

though you can choose to try to match them on guitar.

Tuning: E B E G# B E


Verse:
E----------------------------------------------------|--------
B----------------------------------------------------|--------
E----3h5-5-5-5--3------------------------------------|--------  
G#--------------0----0--0h2--2--2-0----0-0h2p0------0|-0------ 
B--0----------------------0--0--0---0h2-2------0-0h2-|2-2-2p0-
E--0-------------------------------------------------|-------0

to add the plucked fiddle part, end instead:
-----------------------------------------------------|--5-6p0-
-----------------------------------------------------|--------
-----------------------------------------------------|--------
-----------------------------------------------------|--------
-----------------------------------------------------|2-------
-----------------------------------------------------|-------0

pre-chorus:

E----------------------
B----------------------
E----------------------
G#-0-0-0000-0-0-0-0-0-0
B--2-2-2222-2-2/4-4-4/5
E--0-0-0000-0-0-0-0-0-0

chorus/outro:

E-------------------------------------------
B-------------------------------------------
E-------------------------------------------
G#-0-0-0000-0-0-0-0000-0---0-0-0---5-5-555-5
B--2-2-2222-2-1-1-1111-1/5-5-0-0---5-5-555-5
E--0-0-0000-0-0-0-0000-0---0-0-6---5-5-555-5

#----------------------------PLEASE NOTE-----------------------------#
# This represents the author's own work and interpretation of the    #
# song. To be used only for private study, scholarship, or research. #
#--------------------------------------------------------------------#

blog comments powered by Disqus