#----------------------------PLEASE NOTE-----------------------------#
# This represents the author's own work and interpretation of the    #
# song. To be used only for private study, scholarship, or research. #
#--------------------------------------------------------------------#

Artist: Built to Spill
  Song: Saturday

[http://www.indieguitartabs.com/bands/built_to_spill/saturday.html]

Tabbed by: Dan Peterson



The trick to this song is that it is off-key.
I played the bass line on my guitar and tuned
the E string down until I was in key with the
song and then tuned my guitar to that.  This
tab is for the off-key tuning.  The guitar part
is not exact; you have to listen to the song to
get the rhythm.  There is another guitar playing
in the background.  Hopefully people will improve upon my laziness.   
 

Guitar 

Verses

E|------------------
B|-6-6-6-6-6-6-6-6--
G|-6-6-6-6-6-6-6-6--
D|------------------
A|------------------
E|------------------ 

E|-------------------
B|-6-6-6-6-6-6-9--9--
G|-6-6-6-6-6-6-10-10-
D|-------------------      
A|-------------------
E|------------------- 

Chorus

E|------------
B|-6---7---9--
G|-6---8---10-
D|------------
A|------------
E|------------ 
 
Bass 

Verse

G|---------------------------------------------------------------------
D|---------------------------------------------------------------------
A|-4-4-4-4-4-4-4-4-1-1-1-1-1-1-1-1-----------------4-4-4-4-------------
E|---------------------------------2-2-2-2-2-2-2-2---------4-4-4-4----- 

Chorus

G|---------------------------------------------------------------------
D|---------------------------------------------------------------------
A|-6--66--89--99--84--44--1--------6--66--89~~~------------------------
E|-------------------------4--44---------------------------------------