#----------------------------PLEASE NOTE-----------------------------#
# This represents the author's own work and interpretation of the    #
# song. To be used only for private study, scholarship, or research. #
#--------------------------------------------------------------------#

Artist: Built to Spill
 Album: Keep It Like A Secret
  Song: Temporarily Blind

[http://www.indieguitartabs.com/bands/built_to_spill/09_temporarily_blind.html]



gtr.1 (fade in)
E----5-----5-----5-----5---------------|
B-------7-----7-----7-----7-(etc.)-----|
G--------------------------------------|
D--------------------------------------|
A--------------------------------------|
E--------------------------------------|

E---5-----5-----5-----5h7---5-----5-----5-----5h7---|
B------7-----7-----7-----------7-----7-----7--------|
G---------------------------------------------------|
D---------------------------------------------------|
A---------------------------------------------------|
E---------------------------------------------------|

E---------------------------------------------------|
B--5-----5-----5-----5h7----------------------------|
G-----7-----7-----7--------4b--r----7/6-------------|
D----------------------------------------6\7--------|
A---------------------------------------------------|
E---------------------------------------------------|

Bet you can't tell I'm - temporarily blind 
And how much more can I get sunburned (x2)

rhythm
E--------------------------------------||
B--------------------------------------||
G-----------0---------------2----------||
D---4-4--4-----4\6--4-4--4-----4\6-----||
A---2-2--------2\4--2-2--------2\4-----||
E--------------------------------------||
lead (w/slide)                          |
E--------------------------------------||
B--------7\\3------------7\\3----------||
G--------------2\\4------------2\\4----||
D--------------------------------------||
A--------------------------------------||
E--------------------------------------||
 
D
There's one in everyone (repeat)

lead
E--14---------14-------|
B------12-12------12---|
G----------------------|
D----------------------|
A----------------------|
E----------------------|

\\   \\  \\   \\ \\  \\  \
D5  F#5  D5   E5 F#5 E5  D5

D5
The thought of you waitin, for so long 
Turn your back on this hating (x2) 
Before I forget it took so long 
Turn your back on this waiting (x2)

\\   \\  \\   \\ \\  \\  \
D5  F#5  D5   E5 F#5 E5  D5

D
I need to know where you're coming from 
Turn your back on their framing (x2) 
History doesn't teach it makes numb 
Turn your back on their taming (x2)

\\   \\  \\   \\ \\  \\  \
D5  F#5  D5   E5 F#5 E5  D5

D 
Yeah they might let you say it 
But it would take all day to explain it
 
outro lead (w/wah)-
E--9--------------------------------------|
B-----10-10---10--7-7---7-----------------|
G--------------------------7-7--6h7p6-----|
D--------------------------------------7--|
A-----------------------------------------|
E-----------------------------------------|

mail:alec_eiffel@hotmail.com