#----------------------------PLEASE NOTE-----------------------------#
# This represents the author's own work and interpretation of the    #
# song. To be used only for private study, scholarship, or research. #
#--------------------------------------------------------------------#

Artist: Built to Spill
 Album: Keep It Like A Secret
  Song: Time Trap

[http://www.indieguitartabs.com/bands/built_to_spill/06_time_trap.html]

Tabbed by: "Heath Mayhew" faucetclot@msn.com



Built to Spill- Time Trap

e----------------------------------------
B----------------------------------------
G------9-----8---------------------------
D----6---6-6--6-6-----7------10-10--------  x8
A---7-7---7-7--7----4--4-4-----9----------
E------------------5-5--5-5---------------

e----------------------------------------------------------------
B----------------------------------------------------------------
G----------------------------------------------------------------
D----6--7-7--5-5-5-5-5-5------6-6b8r6--7-7--5-5-5-5-5-5----------
A--7------------------------7------------------------------------
E----------------------------------------------------------------

e----------------------------------------------------------------------
B--------------------------------9-------------------------------------
G--------------------------------8--strum------------------------------
D----6--7-7--5-5-5-5-5-5------6--6- several---7-7-7-7-7-7--5-5-5-5-5-5-
A--7------------------------7----6--times------------------------------
E----------------------------------------------------------------------

Riff 3
G-------------------------------------------------------------
D2p1-2p1-2p1--6/2-2p1-2p1--6/2-2p1-2p1-2p1--6/2-2p1-2p1--6/2-  x2
A-------------------------------------------------------------


Chords for verse;
1--779977
2--669966
3--9x9900
4--799877
5--466444
6--799777

I dont know chords for chorus.

The little ditty between verse 1 and verse 2

G----------------------------------------------------------------------
D2p1-2p1-2p1--6/2-2p1-2p1--6/2-2p1-2p1-2p1--6/2-2p1-2p1--65h6h7-6h7h9
A----------------------------------------------------------------------