#----------------------------PLEASE NOTE-----------------------------#
# This represents the author's own work and interpretation of the    #
# song. To be used only for private study, scholarship, or research. #
#--------------------------------------------------------------------#

Artist: Built to Spill
 Album: Keep It Like A Secret
  Song: Sidewalk

[http://www.indieguitartabs.com/bands/built_to_spill/04_sidewalk.html]

Tabbed by: alec_eiffel@hotmail.com



intro, gtr. 1
E-----------------------------------9-------|
B-------------------------------------------|
G--9----9----9----9----9----9----9-----11---|
D----11---11---11---11---11---11------------|
A-------------------------------------------|
E-------------------------------------------|

E-----------------------------------9---------------------|
B---------------------------------------------------------|
G--9----9----9----9----9----9----9-----11--11\13--/11--9--|
D----11---11---11---11---11---11--------------------------|
A---------------------------------------------------------|
E---------------------------------------------------------|
                       rake
E-----9-----12---------9--------|
B--9-----9------12-----9----10--|
G----------------------9-----x--|
D---------------------11-----9--|
A----------------------------0--|
E-------------------------------|


-------- Version 2 --------
TRANSCRIBED: by Colby Hanks March 29, 2000
any queries/discrepancies please mail: 

	
INTRO

  A                        NC       A
|----------------|------------9---|----------------|
|----------------|----------------|----------------|
|9-6-9-6-9-6-9-6-|9-6-9-6-/11--11-|9-6-9-6-9-6-9-6-|
|----------------|----------------|----------------|
|0---0---0---0---|0---0-----------|0---0---0---0---|
|----------------|----------------|----------------|


          NC       E6               Dmaj7  F
|------------9---|--------9---12--|-9---5-----------------|
|----------------|------9---9----9|-7---7-----------------|
|9-6-9-6-/11--11-|/13-9-----------|-7---7-----------------|
|----------------|----------------|-0---0--10-10-10-10-10-|
|----------------|----------------|--------8--8--8--8--8--|
|----------------|----------------|-----------------------|


VERSE/CHORUS INTRO

  A                E6               Dmaj7
|----------------|----------------|-----------------|-----------------|
|----------------|----------------|-3-2-3-2-3-2-3-2-|-3-2-3-2-3-2-3-2-|
|-2--------4-----|-6------7-------|-2-2-2-2-2-2-2-2-|-2-2-2-2-2-2-2-2-|
|----------------|----------------|-0-0-0-0-0-0-0-0-|-0-0-0-0-0-0-0-0-|
|-0--------0-----|----------------|-----------------|-----------------|
|----------------|-0------0-------|-----------------|-----------------|

VERSE RIFF

  A                          NC
|-----------------|----------------|
|-----------------|----------------|
|-2-2-2-2-2-2-2-2-|-2-2-2-2----6---|
|-2-2-2-2-2-2-2-2-|-2-2-2-2-/4---4-|   X 2
|-0-0-0-0-0-0-0-0-|-0-0-0-0--------|
|-----------------|----------------|   



then |       |           |
     | E6    | Dmaj7   F |
     |       |           |

CHORUS
  |      |      |           |       |
  | A    | E    | Dmaj7     |       |
  |      |      |           |       |

except play the dmaj7 just like at the end of the VERSE/CHORUS intro!

-------- Version 3 --------

Artist: Built to Spill
Album: Keep It Like a Secret
Song: Sidewalk
This was tabbed by some nice guy whose name and email I've lost.  If you are him and 
want to send me an email, I'll credit your name on this tab.  Hope this tab sounds OK.
Intro:
e|------------------------------9--------------------------------9-------- 
B|-------------------------------10-------------------------------10------ 
G|-9--9---9---9--9---9---9--9--------9--9---9---9--9---9---9---9---------- 
D|--11-11--11-11-11--11-11---------------11-11--11-11-11--11-11----------- 
A|------------------------------------------------------------------------ 
E|------------------------------------------------------------------------     
E Dmaj  F 
e|----------9----12--9------------------------------------------------ 
B|-11--9------9--------12--10----------------------------------------- 
G|--------9---------------------10-10-10-10-10--3-5-7-9-10(x8)-------- 
D|-------------------------------------------------------------------- 
A|-------------------------------------------------------------------- 
E|--------------------------------------------------------------------  
E                           Dmaj  D   A  
Can it wait for you?  
  A                   F#m
  Come on break it up 
  A                        F#m
  It's gone on long enough 
  E
  What has it changed for you 
 
  What has it changed for you 
  A                   F#m
  The tubes tag along 
  A                        F#m
  The radar's got it wrong 
  What has it changed for you (x2)
 
  Can you wait for the sidewalk 
  Waiting for you 
  Can you wait for the sidewalk 
  Can it wait for you