You Were Right Tab

More Built to Spill Tabs

Artist: Built to Spill
 Album: Keep It Like A Secret
  Song: You Were Right

Tabbed by: justin@indieguitartabs.com

additional tabs by: alec_eiffel@hotmail.com

rhythm:
   D                                   B[strum]
E----------------------------------------------------------------||
B----------------------------------------------------------------||
G--7-----------------------------------4-------------------------||
D--7-------7--5--4---------------------4-------------------------||
A--5----------------5--------4--5------2-------------------------||
E-----5\7--------------5--7--------5-----------------------------||
lead:                                                             |
E----------------------------------------------------------------||
B----------------------------------------------------------------||
G--14br---14br-----14br------14--14----14p12/11h12p11h12p11/9h11-||
D----------------------------------------------------------------||
A----------------------------------------------------------------||
E----------------------------------------------------------------||


rhythm:
  F#[strum]  G[strum]        G          F#          Em
E----------------------------------------------------------------||
B----------------------------------------------------------------||
G----------------------------------------------------------------||
D--4---------5---------------5-----------4-----------2-----------||
A--4---------5---------------5-----------4-----------2-----------||
E--2---------3---------------3-----------2-----------0-----------||
lead:                                                             |
E----------------------------------------------------------------||
B----------------------------------------------------------------||
G-(11)-------11\12--11\12----12\14-12h14p12/11h12p11-12\14-------||
D----------------------------------------------------------------||
A----------------------------------------------------------------||
E----------------------------------------------------------------||

lead:
E-----------------------------------------------------|
B-----------------------------------------------------|
G---14\16--14-14-14-------------14---------12-12-12---|
D---------------------16-17-16------17-16-------------|
A-----------------------------------------------------|
E-----------------------------------------------------|

E-----------------------------------------------------|
B-----------------------------------------------------|
G---12-11--9--9h11p9----------------------------------|
D--------------------11\14~~~~~~--14/12--12-12-12-----|
A-----------------------------------------------------|
E-----------------------------------------------------|

           D
  You were wrong when you said 
  B                       G
  Everything's gonna be alright 

1st solo (w/wah):
E---------------------------------------------------------------------|
B---------------------------------------------------------------------|
G--11-9-11-9-11-9-11-9-11-9-11-9-11p9/7--h9b--rp7--/6h7p6h7---p6--2br-|
D---------------------------------------------------------------------|
A---------------------------------------------------------------------|
E---------------------------------------------------------------------|

           D
  You were right when you said, 
            A                B   F#  G
  "All that glitters isn't gold" 
           D
  You were right when you said, 
          A                     B   F#  G
  "All we are is dust in the wind"
           D
  You were right when you said, 
         A                        B   F#  G
  "We're all just bricks in the wall"
           D                  A                       B  F#  G
  And when you said, "Manic depression's a frustrated mess" 


   B    B\A  G                        repeat
E----------------|--------------<7>----------|
B----------------|-----------7------<7>------|
G----------------|--7--7-7h9------------<7>--|
D--4----4\7--5---|---------------------------|
A--4----4\7--5---|---------------------------|
E--2----2\5--3---|---------------------------|


           D
  You were right when you said, 
       A                           B   F#  G
  "You can't always get what you want"
           D
  You were right when you said, 
            A                B   F#  G
  "It's a hard rain's gonna fall"
           D
  You were right when you said, 
               A                    B   F#  G
  "We're still running against the wind"
             D              A                  B   F#  G
  "Life goes on after the thrill of living is gone"
           D
  You were right when you said 
A                B   F#  G
  "This is the end"

  A  C#       A                A  G#
  Do you ever think about it?

#----------------------------PLEASE NOTE-----------------------------#
# This represents the author's own work and interpretation of the    #
# song. To be used only for private study, scholarship, or research. #
#--------------------------------------------------------------------#

blog comments powered by Disqus