The Plan Tab

More Built to Spill Tabs

Artist: Built to Spill
 Album: Keep It Like A Secret
  Song: The Plan

Tabbed by: justin@indieguitartabs.com

Intro: D G

      G                 D
  The plan keeps coming up again
      G                  D
  The plan means nothing stays the same
      G                         D
  But the plan won't accomplish anything
              G           D
  If it's not implemented

e|-------------------------------------------------------
B|-10b12r10b12r10b12r10~~--10-10-10/7-7-7-7/8\7-7/3-3-3-0
G|-------------------------------------------------------
D|-------------------------------------------------------
A|-------------------------------------------------------
E|-------------------------------------------------------

e|-----------------------------------------------------------
B|-10b12r10b12r10b12r10~~--10-10-10/7-7-7-7/8\7-7/10-10-10\3-
G|-----------------------------------------------------------
D|-----------------------------------------------------------
A|-----------------------------------------------------------
E|-----------------------------------------------------------

e|-------14-14---14-15p14------------14-14--
B|-10/12------------------15---10/12-------- (x2)
G|------------------------------------------
D|------------------------------------------
A|------------------------------------------
E|------------------------------------------

  G         D
  Like it's always been
         G                 D
  And it makes me think of everyone
          G                D
  And the cause if this is evident
          G         D
  But the remedy cannot be found
             G
  Cause it's so well hidden

e|------------------------------------------
B|------------------------------------------
G|----------55-5---------------------------- (x4)?
D|----55-5--------55-5----------------------
A|-3--------------------2-0-2----2/5\2------
E|------------------------------------------

(for this part play D at the 10th fret, 1st position barre,
and slide the bass note up from G - this sounds close enough)

D: 10 12 12 11 10 10

          G / D      G / D
  This history lesson
          G / D       G / D
  doesn't make any sense
       G / D      G / D
  In any less than
                    G / D
  ten thousand year increments
  common sense, commen sense....
 

#----------------------------PLEASE NOTE-----------------------------#
# This represents the author's own work and interpretation of the    #
# song. To be used only for private study, scholarship, or research. #
#--------------------------------------------------------------------#

blog comments powered by Disqus