#----------------------------PLEASE NOTE-----------------------------#
# This represents the author's own work and interpretation of the    #
# song. To be used only for private study, scholarship, or research. #
#--------------------------------------------------------------------#

Artist: Bowerbirds
 Album: The Clearing
  Song: Walk the Furrows

[http://www.indieguitartabs.com/bands/bowerbirds/walk_the_furrows.html]

Tabbed by: Hunter MacDermut

Intro

e|-3---------5-----3---------------|-----------7-----5---------------|
B|---------------------------7-----|-7-------------------------7-----|
G|-----4-------4-------4-------5---|-----5-------5-------5-------5---|
D|-5-------5-------5-------5-------|-7-------7-------7-------7-------|
A|---------------------------------|---------------------------------|
E|---------------------------------|---------------------------------|
   1 e + a 2 e + a 3 e + a 4 e + a   1 e + a 2 e + a 3 e + a 4 e + a

e|---------------------------------|---------------------------------|
B|-7---------7---------------7-----|-----------7-----8---------------|
G|-----5-------5---8---------------|-9-------------------------9-----|
D|-7-------7-----------7-------7---|-----9-------9-------9-------9---|
A|-----------------6-------6-------|-7-------7-------7-------7-------|
E|---------------------------------|---------------------------------|
   1 e + a 2 e + a 3 e + a 4 e + a   1 e + a 2 e + a 3 e + a 4 e + a

e|---------------------------------|-3-------------------------------|
B|-5-------------------------5-----|-----------5---------------3-----|
G|-----------5-----5---------------|-----4-------4---4---------------|
D|-----5-------5-------5-------5---|-2-------2-----------4-------4---|
A|-3-------3-------3-------3-------|-----------------5-------5-------|
E|---------------------------------|---------------------------------|
   1 e + a 2 e + a 3 e + a 4 e + a   1 e + a 2 e + a 3 e + a 4 e + a

e|---------------------------------|-----------------3---------------|
B|-----------0---------------1-----|-----------1---------------5-----|
G|-2---------------2---------------|-2-------------------4-------4---|
D|-----1-------1-------2-------2---|-----2-------2---2-------2-------|
A|-2-------2-------0-------0-------|-0-------0-----------------------|
E|---------------------------------|---------------------------------|
   1 e + a 2 e + a 3 e + a 4 e + a   1 e + a 2 e + a 3 e + a 4 e + a

e|---------------------------------|---------------------------------|
B|-----------3---------------0-----|-----------0---------------0-----|
G|-4---------------0---------------|-0---------------0---------------|
D|-----4-------4-------2-------2---|-----2-------2-------2-------2---|
A|-5-------5-------3-------3-------|-3-------3-------3-------3-------|
E|---------------------------------|---------------------------------|
   1 e + a 2 e + a 3 e + a 4 e + a   1 e + a 2 e + a 3 e + a 4 e + a

e|-----------------|
B|-----------0-----|
G|-0---------------|
D|-----2-------2---|
A|-3-------3-------|
E|-----------------|
   1 e + a 2 e + a

Verse

e|---------------------------------|-------------0---------------0---|
B|-------1-----0---------0-----0---|-------1---------------1---------|
G|---------------------------------|-----0-------0-------0-------0---|
D|-----2-------0-------0-------0---|---------------------------------|
A|---------------------------------|-3-------3-------3-------3-------|
E|-3-------3-------3-------3-------|---------------------------------|
   1 e + a 2 e + a 3 e + a 4 e + a   1 e + a 2 e + a 3 e + a 4 e + a





e|-------------0---------------0---|---------------------------------|
B|-------0---------------0---------|-------1-----0---------0-----0---|
G|---------------------------------|---------------------------------|
D|-----4-------4-------4-------4---|-----2-------0-------0-------0---|
A|-3-------3-------3-------3-------|---------------------------------|
E|---------------------------------|-3-------3-------3-------3-------|
   1 e + a 2 e + a 3 e + a 4 e + a   1 e + a 2 e + a 3 e + a 4 e + a

e|-------------0---------------0---|-------------0---------------0---|
B|-------1---------------1---------|-------0---------------0---------|
G|-----0-------0-------0-------0---|---------------------------------|
D|---------------------------------|-----4-------4-------4-------4---|
A|-3-------3-------3-------3-------|-3-------3-------3-------3-------|
E|---------------------------------|---------------------------------|
   1 e + a 2 e + a 3 e + a 4 e + a   1 e + a 2 e + a 3 e + a 4 e + a

e|---------------------------------|-------------3---------------3---|
B|-------------1---------------1---|-------------2---------------2---|
G|-------2---------------2---------|-------4---------------4---------|
D|-----2-------2-------2-------2---|-----2---------------2-----------|
A|-0-------0-------0-------0-------|---------------------------------|
E|---------------------------------|-0-------0-------0-------0-------|
   1 e + a 2 e + a 3 e + a 4 e + a   1 e + a 2 e + a 3 e + a 4 e + a

e|---------------------------------|-------------3---------------3---|
B|-------------1---------------1---|-------------2---------------2---|
G|-------2---------------2---------|-------4---------------4---------|
D|-----2-------2-------2-------2---|-----2---------------2-----------|
A|-0-------0-------0-------0-------|---------------------------------|
E|---------------------------------|-0-------0-------0-------0-------|
   1 e + a 2 e + a 3 e + a 4 e + a   1 e + a 2 e + a 3 e + a 4 e + a

e|---------------------------------|-------------1---------------1---|
B|-------------4---------4---------|-------1-----1---------1-----1---|
G|-------4---------------4---------|---------------------------------|
D|-----4-------4-------4-------4---|-----3---------------3-----------|
A|-2-------2-------2-------2-------|---------------------------------|
E|---------------------------------|-1-------1-------1-------1-------|
   1 e + a 2 e + a 3 e + a 4 e + a   1 e + a 2 e + a 3 e + a 4 e + a

e|---------------------------------|---------------------------------|
B|-------------0---------------0---|-------------0---------------0---|
G|-------5---------------5---------|-------5-----------5-------------|
D|-----4-------4-------4-------4---|-----4-------4-------4-------4---|
A|-5-------5-------5-------5-------|-5-------5-------5-------5-------|
E|---------------------------------|---------------------------------|
   1 e + a 2 e + a 3 e + a 4 e + a   1 e + a 2 e + a 3 e + a 4 e + a

Intro, Verse

Chorus

e|-------------3---------3---------|-------------5---------------5---||
B|-------5---------------5---------|-------3---------------3---------||
G|-----4-------4-------4-------4---|-----2-------2-------2-------2---||
D|-2-------2-------2-------2-------|-4-------4-------4-------4-------||
A|---------------------------------|---------------------------------||
E|---------------------------------|---------------------------------||
   1 e + a 2 e + a 3 e + a 4 e + a   1 e + a 2 e + a 3 e + a 4 e + a  |
                                                                      | x2
e|-------------3---------------3---|-------------0---------------0---||
B|-------3---------------3---------|-------1---------------1---------||
G|-----4-------4-------4-------4---|-----0-------0-------0-------0---||
D|-5-------5-------5-------5-------|---------------------------------||
A|---------------------------------|-3-------3-------3-------3-------||
E|---------------------------------|---------------------------------||
   1 e + a 2 e + a 3 e + a 4 e + a   1 e + a 2 e + a 3 e + a 4 e + a  |

e|---------------------------------|---------------------------------|
B|-----------1---------------1-----|-----------4---------------4-----|
G|-2---------------2---------------|-4---------------4---------------|
D|-----2-------2-------2-------2---|-----4-------4-------4-------4---|
A|-0-------0-------0-------0-------|-2-------2-------2-------2-------|
E|---------------------------------|---------------------------------|
   1 e + a 2 e + a 3 e + a 4 e + a   1 e + a 2 e + a 3 e + a 4 e + a

e|-3-------------------------------|---------------------------------|
B|-----------5---------------3-----|-----------0---------------0-----|
G|-----4-------4---4---------------|-0---------------0---------------|
D|-2-------2-----------4-------4---|-----2-------2-------2-------2---|
A|-----------------5-------5-------|-3-------3-------3-------3-------|
E|---------------------------------|---------------------------------|
   1 e + a 2 e + a 3 e + a 4 e + a   1 e + a 2 e + a 3 e + a 4 e + a

e|---------------------------------|
B|-----------0---------------0-----|
G|-0---------------0---------------|
D|-----2-------2-------2-------2---|
A|-3-------3-------3-------3-------|
E|---------------------------------|
   1 e + a 2 e + a 3 e + a 4 e + a

Verse (no lyrics)

Chorus

e|-------------3---------3---------|-------------5---------------5---||
B|-------5---------------5---------|-------3---------------3---------||
G|-----4-------4-------4-------4---|-----2-------2-------2-------2---||
D|-2-------2-------2-------2-------|-4-------4-------4-------4-------||
A|---------------------------------|---------------------------------||
E|---------------------------------|---------------------------------||
   1 e + a 2 e + a 3 e + a 4 e + a   1 e + a 2 e + a 3 e + a 4 e + a  |
                                                                      | x8
e|-------------3---------------3---|-------------0---------------0---||
B|-------3---------------3---------|-------1---------------1---------||
G|-----4-------4-------4-------4---|-----0-------0-------0-------0---||
D|-5-------5-------5-------5-------|---------------------------------||
A|---------------------------------|-3-------3-------3-------3-------||
E|---------------------------------|---------------------------------||
   1 e + a 2 e + a 3 e + a 4 e + a   1 e + a 2 e + a 3 e + a 4 e + a  |

e|----------------------------------|---------------------------------|
B|--------------1-----------1-------|-------------1-------------------|
G|--------2---------------2---------|-------2-------------------------|
D|------2-------2-------2-------2---|-----2-------2-------------------|
A|-0--------0-------0-------0-------|-0-------0-------0---------------|
E|----------------------------------|---------------------------------|
    1 e + a 2 e + a 3 e + a 4 e + a   1 e + a 2 e + a 3 e + a 4 e + a