#----------------------------PLEASE NOTE-----------------------------#
# This represents the author's own work and interpretation of the    #
# song. To be used only for private study, scholarship, or research. #
#--------------------------------------------------------------------#

Artist: Bowerbirds
 Album: Hymns for a Dark Horse
  Song: Slow Down

[http://www.indieguitartabs.com/bands/bowerbirds/slow_down.html]

Tabbed by: Hunter MacDermut

Intro/Verse:

e|------------5------1-1---------------------------|
B|---3---3---3---0---0-0----3----4-4----4-4------1-|
G|---3---3--3--------0-0---3----5--5---5--5----2---|
D|-5-------7--------------3----5---5--5---5---3----|
A|-----5-----------------1----3----3-3----3--------|
E|-----------------3------------------------1------|

e|--------3-------3-------3-------3-|
B|----4-------4-------4-------4-----|
G|---0-------0-------0-------0------|
D|--3-------3-------3-------3-------|
A|-3---3---3---3---3---3---3---3----|
E|----------------------------------|

Bb D7/A Gm F Bbsus4

Coda:

Cm F Bb Gm
Cm F Bb Gm
D Gm Bb Cm (F)


My sweetheart and I will retire,
Will retire to the tide pools.
And we'll fix our meals of crabs and krill in the long afternoon.
And we'll shed our skin,
For a shell from a wise old snail who is singing:

Slow down.

At the base of the dunes with the algae bloom and the heron,
Here we sit all day and wait and wait for the tide to come crashing.
And we'll shed our skin because we know where it's been,
And we know this hymn:

Slow down.

Lost, lost, in this torrent,
Drowned in the deep of this over-sweet porridge,
Blind to to all of the blood and carnage.

Slow down.