#----------------------------PLEASE NOTE-----------------------------#
# This represents the author's own work and interpretation of the    #
# song. To be used only for private study, scholarship, or research. #
#--------------------------------------------------------------------#

Artist: Bowerbirds
 Album: Hymns for a Dark Horse
  Song: Hooves

[http://www.indieguitartabs.com/bands/bowerbirds/hooves.html]

Tabbed by: Hunter MacDermut

Intro:

e|---------------------------------------|
B|-----------1---1-----1---1-----1---1---|
G|---------3-------3---2-----2---2-----2-|
D|---0---0-----2-----1---1-----1---1-----|
A|---------------------------------------|
E|-3---3---------------------------------|

e|-------------------------------------|
B|---------3-------------1---------1---|
G|---3-------3-------2-----2---2-----2-|
D|-----3-------3-----0---------0-------|
A|-1-----1-------1---------------------|
E|-----------------2---2-----2---2-----|

Verse:

Back to when I was born on that full moon
I nearly split my mama in two
And as she held me proud, I had the thought
"There is no one more beautiful than you."

Chorus:

C7 D7/F# G7

           Bb                  F              Cm
You're the kindling stick that burns below my heart
           Bb          D7/F#               *** ----> 3x031x
You're the hooves that lead me through the forest

Bridge: same as verse, no words.

Chorus:

C7 D7/F# G7

           Bb                  F              Cm
You're the kindling stick that burns below my heart
           Bb     F               Cm
You're the memory now that lives across the world
         Bb         F                Cm       D#
When the wind howls low and tries to steal my hours?
           Bb          D7/F#               *** ----> 3x031x
You're the hooves that lead me through the forest