Crooked Lust Tab

More Bowerbirds Tabs

Artist: Bowerbirds
 Album: Upper Air
  Song: Crooked Lust

Tabbed by: Hunter MacDermut

Intro

e|------------0---|------------0---|---------0---|---------0---|
B|----10----------|----10----------|---8---------|---8---------|
G|-------9------0-|-------9------0-|-----9-----0-|-----9-----0-|
D|-10------10-----|-10------10-----|-9-----9-----|-9-----9-----| x2
A|----------------|----------------|-------------|-------------|
E|----------------|----------------|-------------|-------------|

Verse

e|------------0---|------------0---|---------0---|---------0---|
B|----10----------|----10----------|---8---------|---8---------|
G|-------9------0-|-------9------0-|-----9-----0-|-----9-----0-|
D|-10------10-----|-10------10-----|-9-----9-----|-9-----9-----|
A|----------------|----------------|-------------|-------------|
E|----------------|----------------|-------------|-------------|

I was born a ghost, an apparition

e|-----------10---|-----------10---|---------7---|---------7---|
B|----8-----------|----8-----------|---5---------|---5---------|
G|------9-------9-|------9-------9-|-----5-----5-|-----5-----5-|
D|-10-----10------|-10-----10------|-7-----7-----|-7-----7-----|
A|----------------|----------------|-------------|-------------|
E|----------------|----------------|-------------|-------------|

Filled with holes and contradiction

e|---------7---|---------0---|---------0---|---------0---|
B|---7---------|---1---------|---1---------|---1---------|
G|-----4-----4-|-----0-----0-|-----0-----0-|-----0-----0-|
D|-0-----0-----|-------------|-------------|-------------|
A|-------------|-3-----3-----|-3-----3-----|-3-----3-----|
E|-------------|-------------|-------------|-------------|

And I fear I'm the only one

e|--------------|-------------|-------------|-------------|
B|----------0---|---------0---|---------0---|---------0---|
G|----7---------|---5---------|---5---------|---5---------|
D|------5-----5-|-----4-----4-|-----4-----4-|-----4-----4-|
A|-s7-----7-----|-5-----5-----|-5-----5-----|-5-----5-----|
E|--------------|-------------|-------------|-------------|

Verse

So I wake early, watch the leaves quake
In the first light, braise the trees
I hide myself in a secret place

Here I know my heart, I know it's careless
Darling you seem like you're fearless
Maybe you're my perfect fix

Chorus

e|---------3----|---------0---|---------0---|---------0---|
B|---0----------|---1---------|---1---------|---1---------|
G|.-----0-----0-|-----2-----2-|-----2-----2-|-----2-----2-|
D|.-------------|-------------|-------------|-------------|
A|--------------|-0-----0-----|-0-----0-----|-0-----0-----|
E|-3-----3------|-------------|-------------|-------------|

1) My conscience is
2) Majestic, bewildering
                              v 3rd time go to *
e|---------3---|---------0---|---------0---|---0-----------|
B|---0---------|---1---------|---1---------|-----0----7----|
G|-----0-----0-|-----2-----2-|-----0-----0-|--------------.|
D|-------------|-------------|-------------|------------7-.|
A|-------------|-0-----0-----|-3-----3-----|-------s5------|
E|-3-----3-----|-------------|-------------|-0-------------|

1) My conscience is an avalanche
2) And wholly, careless, crooked lust, crooked lust
3) My conscience is an avalanche

*
e|---------0---|---------0---|---------0---|---------0---|
B|---1---------|---1---------|---1---------|---1---------|
G|-----0-----0-|-----0-----0-|-----0-----0-|-----0-----0-|
D|-------------|-------------|-------------|-------------|
A|-3-----3-----|-3-----3-----|-3-----3-----|-3-----3-----|
E|-------------|-------------|-------------|-------------|

e|--------------|-------------|-------------|-------------|
B|----------0---|---------0---|---------0---|---------0---|
G|----7---------|---5---------|---5---------|---5---------|
D|------5-----5-|-----4-----4-|-----4-----4-|-----4-----4-|
A|-s7-----7-----|-5-----5-----|-5-----5-----|-5-----5-----|
E|--------------|-------------|-------------|-------------|

Verse

I live with the tides, I live in reverence
And know the days are endless, endless
But darling you seem like you're anxious

Chorus x2
#----------------------------PLEASE NOTE-----------------------------#
# This represents the author's own work and interpretation of the    #
# song. To be used only for private study, scholarship, or research. #
#--------------------------------------------------------------------#

blog comments powered by Disqus