Bright Future Tab

More Bowerbirds Tabs

Artist: Bowerbirds
 Album: Upper Air
  Song: Bright Future

Tabbed by: Hunter MacDermut

capo on 2

6/8 time, v = beat

e|-----5-------------|---2-------------|-----------------|-----------------|
B|-----0-----0-----0-|-----0---0-------|---0----------3--|---3---------3---|
G|-----5-------5-----|-------2---------|-----0--------5--|-----5-------5---|
D|---------------4---|-----------------|-------2------2--|-------2-4-------|
A|-------------------|-3---------------|----------0------|-----------------|
E|-3-------3---------|-----------3-----|-----------------|-----------------|
   v v  v  v v   v     v v   v   v v v   v v   v  v v  v   v v   v v  v  v

e|-----5-------------|---2-------0-----|-----------------|-------------------|
B|-----0-----0-----0-|-----0---0-0-----|---3-3----3-3----|----5-5---5-5------|
G|-----5-------5-----|-------2---0-----|---4-4----4-4----|.---0-0---0-0-----.|
D|---------------4---|-----------2-----|---4-4----4-4----|.---4-4---4-4-----.|
A|-------------------|-3---------2-----|-5------5--------|--3-----3----------|
E|-3-------3---------|-----------0-----|-----------------|-------------------|
   v v  v  v v   v     v v   v   v v v   v v v  v v v      v v v v v v

Bright future, bright pink
Bright light in my eyes
Oh, this desert's a tease

Giant heart, down in this dust
Fell to the earth at a fascinating speed

Further up in the ponderosa
The nervous coyotes caterwauling
Their chorus is foreboding

Couldn't you've stayed on the ground
Couldn't you've stayed on your feet

         Em       Bm       C
But your mind was wound so tightly
       Em       Bm         C    D
Always bold and wise and unsettling
  G            D    G
I live in your tall trees
             D        G
Amongst your fearless leaves
               D       Am            D7/F# G
Saw the bright colors, bright future

The night is patient
The night's a glass dome
The night is still and cold
But this desert can turn

Your restless mind was born in a flash
And you lived in these clouds
With lightning in your feet

But your mind was wound so tightly
Always bold and wise and unsettling
I live in your tall trees
Amongst your fearless leaves
Saw the bright colors, bright future

Am D7/F# Am D7/F# end on G
#----------------------------PLEASE NOTE-----------------------------#
# This represents the author's own work and interpretation of the    #
# song. To be used only for private study, scholarship, or research. #
#--------------------------------------------------------------------#

blog comments powered by Disqus