Re: Stacks Tab

More Bon Iver Tabs

Artist: Bon Iver
 Album: For Emma, Forever Ago
  Song: Re: Stacks

Tabbed by: Alex Parker

Tuning: D A D G A D

Note: On the album the capo seems to be on the 7th fret,
but live he plays on the 6th fret. 

All chords will be relative to the capo on the 7th fret. 
 
Intro, Verse Progression:

     A      D       B             A       B  
D|--(0)----(0)-----(0)-----------(0)-----(0)------------|
A|--(0)----(0)-----(0)-----------(0)-----(0)------------|
G|---2------2-------2-------------2-------2-------------|
D|---2------0-------0-------------2-------0-------------|
A|---0--------------2---(0h2)*----0-------2----(0h2)*---|
D|---------------------------------------(2)**----------|

(Bracketed notes are less emphasized, frequent)
*Hammer-on is played multiple beats
**Played at the end of verses, fret with thumb


Bridge played at the end of verse progressions:
***Repeat as needed
A               B                        
D|--(0)--------(0)--(0)-(0)---------|
A|--(0)--------(0)--(0)-(0)---------|
G|---2----------2----2---2----------|
D|---2----------0----0---0----------| 
A|---0----------2----0h2p0***-------|
D|---0----------0----0---0----------|


A                    D         B 
        This my excavation and to---------

                     A      B  
                     day is kumran

A                       D          B  
        Everything that happens is from now on

                     A       B 
             This is pouring rain. This is paralyzed


A                         D    B 
       I keep throwing it down two------
                     
                     A                 B
                     hundred at a time

A                           D        B
       It's hard to find it when you knew it

                           A       B 
                 When your money's gone. And you're drunk as hell




CHORUS:
	
     A	    B	   Gb/G/D
D|--(0)----(0)---------------------------------------------------|
A|--(0)----(0)----(0)--------------------------------------------|
G|---2------2-----(0)--------------------------------------------|
D|---2------0------4--5--4--0--0--4----0--4--5--4--0-------------|
A|---0------2-----(0)--------------------------------------------|
D|---------------------------------------------------------------|


	A              B 	
On your back with your racks as the stacks as your load

Gb/G/D	

       A            B	 	
In the back and the racks and the stacks are your load

Gb/G/D	

       A	      B	 
In the back with your racks and you're un-stacking your load

Gb/G/D	


More Lyrics!

I've twisting to the sun I needed to replace
The fountain in the front yard is rusted out
All my love was down 
In a frozen ground

There's a black crow sitting across from me; his wiry legs are crossed
And he's dangling my keys he even fakes a toss
Whatever could it be
That has brought me to this loss?

On your back with your racks as the stacks as your load
In the back and the racks and the stacks of your load
In the back with your racks and you're un-stacking your load

This is not the sound of a new man or crispy realization
It's the sound of the unlocking and the lift away
Your love will be
Safe with me 
  
#----------------------------PLEASE NOTE-----------------------------#
# This represents the author's own work and interpretation of the    #
# song. To be used only for private study, scholarship, or research. #
#--------------------------------------------------------------------#

blog comments powered by Disqus