#----------------------------PLEASE NOTE-----------------------------#
# This represents the author's own work and interpretation of the    #
# song. To be used only for private study, scholarship, or research. #
#--------------------------------------------------------------------#

Artist: Bon Iver
 Album: For Emma, Forever Ago
  Song: Skinny Love (Ver 2)

[http://www.indieguitartabs.com/bands/bon_iver/skinny_love_ver_2.html]

Tabbed by: Jack Czapiga

Hardly any of the tabs out there are right... this is.
Feel free to make up names for the chords because I did.

Tuning: C G E G C C

 Am: 020200    C2: 076000
 Em: 050500   C/B: 043400
  D: 070700   Am2: 021200
  C: 000000

	Riff # 1		    Riff # 2		
C|--2-4-2-0-2-4-2-0-0-|--7-9-7-0-2-4-2-0-0-|
C|--2-4-2-0-2-4-2-0-0-|--7-9-7-0-2-4-2-0-0-|
G|------------------2-|------------------2-|
E|------------------0-|------------------0-|
G|------------------2-|------------------2-|
C|------------------0-|------------------2-| 

	  Riff # 3
C|-----------------------0--|
C|-----------------------2--|
G|-----------------------2--|
E|--3--0-----------------0--|
G|--------7-0--5--0--2--2--|
C------------------------0--| 

        Fill 1      Fill 2
C|--0--0-0-0-0-0|--0-0-|
C|--5--5-5-5-4-4|--0-0-|
G|--5--5-5-5-5-5|--0-0-|
E|--0--0--0-0-0-0|--5-5-|
G|----------------|--5-5-|
C|----------------|--0-0-|

Intro:
Am Em C  Riff#1
Am Em C  Riff#2
Am Em (Fill#1) D  
Am  (Fill#2) (Riff#3)

Verse:

Am              Em                C
Come on skinny love just last the year
Am            Em                 C
Pour a little salt we were never here
        Am          Em      C
My, my, my, my, my, my, my, my
               D                                Am   C
Staring at the sink of blood and crushed veneer

I tell my love to wreck it all
Cut out all the ropes and let me fall
My, my, my, my, my, my, my, my
Right in the moment this order's tall

Chorus:

  C2
I told you to be patient
  C/B            Am2
I told you to be fine
  C2
I told you to be balanced
  C/B            Am2
I told you to be kind
       C2
In the morning I'll be with you
            C/B             Am2
But it will be a different "kind"
        C2
I'll be holding all the tickets
              C/B            Am2
And you'll be owning all the fines

Verse:

Come on skinny love what happened here
Suckle on the hope in lite brassiere
My, my, my, my, my, my, my, my
Sullen load is full; so slow on the split

Chorus:

I told you to be patient
I told you to be fine
I told you to be balanced
I told you to be kind
Now all your love is wasted?
Then who the hell was I?
Now I'm breaking at the britches
And at the end of all your lines

Bridge:

C2
Who will love you?
C/B      Am2
Who will fight?
C2        C/B      Am2
Who will fall far behind?