#----------------------------PLEASE NOTE-----------------------------#
# This represents the author's own work and interpretation of the    #
# song. To be used only for private study, scholarship, or research. #
#--------------------------------------------------------------------#

Artist: Beulah
 Album: The Coast Is Never Clear
  Song: Silver Lining

[http://www.indieguitartabs.com/bands/beulah/05_silver_lining.html]

Tabbed by: Steve White

 

Riff 1:
E|----------------------------------
B|----------------------------------
G|----------------------------------
D|----------------------------------
A|-----2-5---5-5-0-2-2-2-3---3-2h3p2
E|-3-3------------------------------ 

Riff 2:
E|----------------------------------
B|----------------------------------
G|-9-7---7-9-7---7-9-7--------------
D|-----9-------9-------9-7\5/7\5/7--
A|----------------------------------
E|---------------------------------- 

Riff 3:
E|----------------------------------
B|----------------------------------
G|-----4-7---7-7-7-4-4-4-5---5-4/5\4
D|-5-5-4-7---7-7-7-4-4-4-5---5-4/5\4
A|-5-5-2-5---5-5-5-2-2-2-3---3-2/3\2
E|-3-3------------------------------ 

Riff 4:
E|----------------------------------
B|----------------------------------
G|----------------------------------
D|-5-5-5-4---4-4-4-2-2--------------
A|---------------------2-3---3-2/3\2
E|---------------------------------- 

Intro: Riff 1 x 2      

       Riff 1 + Riff 2 x 2        

       Riff 3 x 4 

Verse 1: Riff 2 + Riff 3 

Punk rock was my first girl
She left me a scar, so I have her still
She's not young, but she's not old yet
We share the same sun, but her's never sets 

Chorus: 

D5        C5
You want it
E5 (x-7-9-9-x-x)
Silver lining shining for you
G5        F5
You got it
E5
The dark cloud always waiting for you 

Verse 2: (same as verse 1) 

Weightless, and tumbling through space
I remember her voice, but not her face
Floating, but she's always near
She wants to stay, but she can't stay here 

Chorus 

Solo:

   G5            C5           G5      D5     C5 
    slow vibrato
E|---------------------------------------------------
B|-------------------------------8---10-12-10-8-10-8-
G|-7~~~~~~~~~~~~-------------7-9---------------------
D|--------------9~~~~~~~~~~~~------------------------ Repeat
A|---------------------------------------------------
E|--------------------------------------------------- 

   C5           G5         C5           G5
E|-7-5---7-5---7-----------7-5---7-5---7-------------
B|---------------------------------------------------
G|---------------7---9---7---------------7-----------
D|---------------------------------------------------
A|---------------------------------------------------
E|--------------------------------------------------- 

   D5            C5          F5        E5
E|-------5------------------------------------------------------------------------
B|-5-8-5-----8---5---8-5-----5-8-5--------------13\1----13\1---13\1---13\1---13\1-
G|-----------------------7-4-------7---4---2-0------------------------------------
D|--------------------------------------------------------------------------------
A|--------------------------------------------------------------------------------
E|-------------------------------------------------------------------------------- 

                                               |----------------------------------
                                               |----------------------------------
                                    Guitar 2   |-2^-2^-2^-2^-2^-2^-2^-2^-2^-2^-2^-
                               during slides   |----------------------------------
                                               |----------------------------------
                                               |----------------------------------  

Verse 3: Same as other verses 

Frozen in window displays
Where did you hide all those days we'd waste?
Fading, but I see her still
She'll always be my punk rock girl 

Outro:

Riff 3 x 4
End on G5