#----------------------------PLEASE NOTE-----------------------------#
# This represents the author's own work and interpretation of the    #
# song. To be used only for private study, scholarship, or research. #
#--------------------------------------------------------------------#

Artist: Beulah
 Album: Handsome Western States
  Song: Disco: The Secretaries Blues

[http://www.indieguitartabs.com/bands/beulah/03_disco_the_secretaries_blues.html]

Tabbed by: nomadbleem gmail com



G-C-Am-C-D (intro and verses)

(second guitar intro that they played only at live shows)
(repeat for as long as you like)
|---7--3--------------------------------------|
|---------5---3-------------------------------|
|---------------------------------------------|
|---------------------------------------------|
|---------------------------------------------|
|---------------------------------------------|


G-C-Am-C-D
Here there floats
an island of saints
Apprentice boys and girls 
say hi
to Devils that waste their time
And they fall when shoes don't fit them so well
slip back pumps and lounges
it's where we go to cheer them on

G-E-C
Riders on the right won't you help me?
G-E-C
It's crowded and a bit too lonely
G-E-C
Mirror balls and they're spinning
G-E-C
Happy and ascending
D-C
yeah yeah

G-C-Am-C-D 
All these these words
that line the page
dye jobs fade when the sun sets
that we rent when we get bored with the
pinstripe suits
degrees and men and personel will wink
about lips and tigers in the past

G-E-C
Riders on the right won't you help me?
G-E-C
It's crowded and a bit too lonely
G-E-C
Mirror balls and they're spinning
G-E-C
Happy and ascending
D-C
yeah yeah

G-B
A-B
G-G#

A-E-D
la la la da da la la la da da la da da
California
A-E-D
la la la da da la la la da da la da da
cul-de-sacs, but
A-E-D
la la la da da la la la da da la da da
see the records fall
A-E-D
la la la da da la la la da da la da da
ssshhh--right

solo: rhythm guitar plays G-D

solo part is:

2x
|-----------------------------------|
|-----------------------------------|
|---14141414141414------------------|
|------------------------12121212---|
|-----------------------------------|
|-----------------------------------|

|-----------------------------------------|
|-----------------------------------------|
|--------------------------14141414141414-|
|--14-12-14-12-14-12----------------------|
|-----------------------------------------|
|-----------------------------------------|

|---------------------------------------------|
|---------------------------------------------|
|--------------------------16161616--14141414-|
|--14-12-14-12-14-12--------------------------|
|---------------------------------------------|
|---------------------------------------------|

2x
|-----------------------------------------|
|-----------------------------------------|
|-16161616--14141414----------------------|
|-----------------------------12121212----|
|-----------------------------------------|
|-----------------------------------------|

|-------------------------------------------------|
|-------------------------------------------------|
|--------------------------------1414141414141414-|
|------14141414141414-12--------------------------|
|-------------------------------------------------|
|-------------------------------------------------|

|------------------------------------------|
|------------------------------------------|
|-------12-14141414141414--161616--1414----|
|------------------------------------------|
|------------------------------------------|
|------------------------------------------|

A-E-D
la la la da da la la la da da la da da
titration
A-E-D
la la la da da la la la da da la da da
part of my skin
A-E-D
la la la da da la la la da da la da da
expiration
A-E-D
la la la da da la la la da da la da da
oh