#----------------------------PLEASE NOTE-----------------------------#
# This represents the author's own work and interpretation of the    #
# song. To be used only for private study, scholarship, or research. #
#--------------------------------------------------------------------#

Artist: Belle & Sebastian
 Album: If You're Feeling Sinister
  Song: Fox In The Snow

[http://www.indieguitartabs.com/bands/belle_and_sebastian/05_fox_in_the_snow.html]

Tabbed by: Jason Pratt



Capo 4 (chords relative to capo)

Intro: A - A/E - A - A/E (etc.)

This song is all arpeggios...a typical verse gets played something like this:

    A           E           F#m                     DMaj7
e |-------------0-----0-----------------------------------------
B |--2-----2------0-----0---2-----2-----2-----2-----2-----2-----
G |----2-----2------1-----1---2-----2-----2-----2-----2-----2---
D |------2----2-----------------4-----4-----4-----4-----0-----0-
A |-------------------------------------------------------------
E |-------------------------------------------------------------

                E                    A           C#/G#
e|--------------0-----0--------------------------------------
B|--2-----2-------0-----0-0-0-0------2-----2-----6-----6-----
G|----2-----2-------1-----1h2-1--------2-----2-----6-----6---
D|------0-----0--------------------------2-----2-----6-----6-
A|-----------------------------------------------------------
E|-----------------------------------------------------------

    F#m                     DMaj7       A           DMaj7
e|--------------------------------------------------------------
B|--2-----2-----2-----2-----2-----2-----2-----2-----2-----2-----
G|----2-----2-----2-----2-----2-----2-----2-----2-----2-----2---
D|------4-----4-----4-----4-----0-----0-----2-----2-----0-----0-
A|--------------------------------------------------------------
E|--------------------------------------------------------------

    A           C#m         B           DMaj7
e|--------------0-----0-----------------------
B|--2-----2-------2-----2---4-----4-----2-----
G|----2-----2-------1-----1---4-----4-----2--- etc.
D|------2-----2-----------------4-----4-----0-
A|--------------------------------------------
E|--------------------------------------------


A               E
Fox in the snow where do you go
        F#m
To find something you could eat?
           DMaj7                             E
'Cause the word out on the street is you are starving
                        A
Don't let yourself grow hungry now
C#/G#                   F#m
Don't let yourself grow cold
           DMaj7 - A - DMaj7 - A
Fox in the snow

Girl in the snow, where do you go
To find someone who will do?
To tell someone all the truth before it kills you
               A
Listen to your crazy laugh
C#/G#             F#m
Before you hang a right
                   DMaj7 - A
And disappear from sight
DMaj7             A
What do they know anyway?
                    DMaj7
You'll read it in a book
                  A
What do they know anyway?
                    C#m         B - DMaj7
You'll read it in a book tonight

A               E
Boy on the bike what are you like
       F#m
As you cycle round the town?
             DMaj7
You're going up you're going down
             E
You're going nowhere
                       A
It's not as if they're paying you
C#/G#               F#m
It's not as if it's fun
                DMaj7 - A
At least not anymore
DMaj7              A
When your legs are black and blue
                    DMaj7
It's time to take a break
                   A
When your legs are black and blue

It's time to take a holiday

Solo:

e|--------------------------------------
B|--------------------------------------
G|--------------------------------------
D|----2-2---2-4-4-6-7-6-4-2-4-2-4-------
A|--4-----4-----------------------0-2-4-
E|--------------------------------------

e|----------------------------------------------------------
B|----------------------------------------------------------
G|----------------------------------------------------------
D|----2-2---2-4-4-6-7-6-4-2-4-2-4---------------------------
A|--4-----4-----------------------0-2-4----4-4-5-4-2-4-2-0--
E|----------------------------------------------------------

DMaj7 - A - DMaj7 - A (etc.)

A               E  
Kid in the snow way to go
        F#m
It only happens once a year
        DMaj7
It only happens once a lifetime
         E
Make the most of it
               A
Second just to being born
C#/G#           F#m
Second to dying too
                    DMaj7
What else would you do?
A                   DMaj7
What else would you do?
What else would you do?
What else would you do?
Fox in the snow (When your legs looking black and blue)
Fox in the snow (It's not as if they're paying you)
Fox in the snow (When your legs looking black and blue)
Fox in the snow (It's not as if they're paying you)
Fox in the snow
Fox in the snow

Keep repeating the A - DMaj7 progression

Ending:
C#m - B - DMaj7