#----------------------------PLEASE NOTE-----------------------------#
# This represents the author's own work and interpretation of the    #
# song. To be used only for private study, scholarship, or research. #
#--------------------------------------------------------------------#

Artist: Belle & Sebastian
 Album: If You're Feeling Sinister
  Song: Like Dylan In The Movies

[http://www.indieguitartabs.com/bands/belle_and_sebastian/04_like_dylan_in_the_movies.html]

Tabbed by: Jason Pratt



Intro: E - B - A - B (repeat)

E        B     A          B         E
Lisa's kissing men like a long walk home
           B   A
When the music stops
E          B    A              B   E
Take a tip from me don't go to the park
     B              A               B    C#m
When you're on your own it's a long walk home

C#m     G#m
If they follow you
           F#m
Don't look back
                  A
Like Dylan in the movies
        C#m
On your own
        G#m
If they follow you
              F#                                A
It's not your money that they're after boy it's you

Pure easy listening settle down
On the pillow soft when they've all gone home
You can concentrate on the ones you love
You can concentrate hey now they've gone

If they follow you
Don't look back
Like Dylan in the movies
On your own
If they follow you
It's not your money that they're after boy it's you

Solo (over chord progression from verses):
e|------9---7---5-----------------9---7---5--------
B|----------------5-7p5---5-----------------6/8-8b-
G|--7/9---7---6---------6-----7/9---7---6----------
D|-------------------------------------------------
A|-------------------------------------------------
E|-------------------------------------------------

e|------9---7---5---3-2-0-----4---2-0------------
B|----------------------------------2-----------
G|--7/9---7---6---4-------2/4---2---2-2b2.5r-2-0-
D|----------------------------------2------------
A|----------------------------------0------------
E|-----------------------------------------------

Instrumental following solo:
E - B - A - B
E - B - A - B
E - B - A - B
C#m - G#m - F#m - A
C#m - G#m - F# - A

E                 B     A                      B   E
Yeah you're worth the trouble and you're worth the pain
             B   A                 B   C#m
You're worth the worry, I would do the same
               G#m             A
If we all went back to another time

I will love you over
F#m
I will love you over
A
I will love you

If they follow you
Don't look back
Like Dylan in the movies
On your own
If they follow you
Tenderly you turn the light on in your room

C#m     G#m
If they follow you
           F#m
Don't look back
                  A
Like Dylan in the movies
        C#m
On your own
        G#m
If they follow you...

F#m - B - G#m - G#
C#m - B - G#m - G# (repeat this until the end)

End on C#m