My Night With the Prostitute From Marseille Tab

More Beirut Tabs

Artist: Beirut
 Album: March of the Zapotec & Realpeople: Holland
  Song: My Night With the Prostitute From Marseille

Tabbed by: joseph_rogers22@hotmail.com

|  G  |  A  |  Bm  | D F#m |

e|----------------|-----------------|----------------|
B|-------3--------|-----------------|-------3--------|
G|-----2---4--2---|---------2-------|-----2---4--2---|
D|-------------4--|-----2-4---4-2---|-------------4--|
A|---5------------|---5-----------5-|-2-5------------|
E|-3--------------|-5---------------|----------------|

e|-----------------|
B|-----------------|
G|-----------------|
D|-------2---------|
A|-----2---5-4-2---|
E|-2-5-----------5-|



#----------------------------PLEASE NOTE-----------------------------#
# This represents the author's own work and interpretation of the    #
# song. To be used only for private study, scholarship, or research. #
#--------------------------------------------------------------------#

blog comments powered by Disqus