Zebra Tab

More Beach House Tabs

Artist: Beach House
 Album: Teen Dream
  Song: Zebra

Tabbed by: Hunter MacDermut

Beach House // Zebra

3/4 Time

Intro (played twice):                           _____________  ______________
                                               |1.            |2.
e||-------------|-------------|----------------|-------------||--------------|
B||-------------|-------------|----------------|-------------||--------------|
G||.5---5---5---|-6---6---6---|-10----8----6---|-5---5---5--.||-5---5---8----|
D||.------------|-------------|----------------|-------------||--------------|
A||---6---6---6-|---8---8---8-|----11---10---8-|---6---6---6.||---6---6---10-|
E||-------------|-------------|----------------|-------------||--------------|

e|-------------------|----------------|-------------------|-------------|
B|-------------------|----------------|-------------------|-------------|
G|-10----10----10----|-8----8----8----|-12----12----12----|-5---5---5---|
D|-------------------|----------------|-------------------|-------------|
A|----11----11----11-|---10---10---10-|----13----13----13-|---6---6---6-|
E|-------------------|----------------|-------------------|-------------|

e|-------------|-------------|-------------|-------------|-------------|
B|-------------|-------------|-------------|-------------|-------------|
G|-6---6---6---|-6---6---5---|-3---1---1---|-1---0-------|-------------|
D|-------------|-------------|-------------|---------3---|-1---1---3---|
A|---8---8---8-|---8---8---6-|---5---3---1-|---1---1-----|-------------|
E|-------------|-------------|-------------|-----------4-|---4---4---4-|

e|-------------|
B|-------------|
G|-1---1---3---|
D|-------------|
A|-------------|
E|---4---4---4-|

Verse (same as intro, played twice, but 2nd time last two measures replaced with):

e|-------------|-------------|-------------|-------------|
B|-------------|-------------|-------------|-------------|
G|-------------|-1---1-------|-------------|-------------|
D|-1---1---3---|---------3---|-1---1---1---|-1---1---1---|
A|-------------|-------------|-------------|-------------|
E|---4---4---4-|---4---4---4-|---4---4---4-|---4---4---4-|

You know you're gold, you don't got to worry none
Oasis child born and so wild
Don't I know you better than the rest
All deception, all deception from you

Your love is stag, in the white sand
Wilderness for miles, eves so mild and wise
Don't I know you better than the rest
All deception, all deception from you

Chorus:

e||--------------|-------------------|-------------------|----------------|
B||--------------|-------------------|-------------------|----------------|
G||.5---5---9----|-10----10----10----|-13----13----12----|-8----8----8----|
D||.-------------|-------------------|-------------------|----------------|
A||---6---6---10-|----11----11----11-|----15----15----13-|---10---10---10-|
E||--------------|-------------------|-------------------|----------------|

e|-------------|-------------|-------------|-------------||-------------|
B|-------------|-------------|-------------|-------------||-------------|
G|-6---6---6---|-0---0---0---|-3---3---1---|-0---0---0--.||-0---0---0---|
D|-------------|-------------|-------------|------------.||-------------|
A|---8---8---8-|---1---1---1-|---4---4---3-|---1---1---1-||---1---1---1-|
E|-------------|-------------|-------------|-------------||-------------|

Any way you run, you run before us
Black and white horse arching among us

Transition:

e|-------------|-------------|-------------|-------------|
B|-------------|-------------|-------------|-------------|
G|-5---5---5---|-5---5---5---|-5---5---5---|-5---5---5---|
D|-------------|-------------|-------------|-------------|
A|---6---6---6-|---6---6---6-|---6---6---6-|---6---6---6-|
E|-------------|-------------|-------------|-------------|

Verse (same as before)

Your love is stag, in the white sand
Oasis child born into a man
Don't I know you better than the rest
All deception, all deception from you

Wilderness for miles, eves so mild and wise
Oasis child born and so wild
Don't I know you better than the rest
All deception, all deception from you

Chorus (same as before) x3

Any way you run, you run before us
Black and white horse arching among us

(last time play final measure twice more to end)

End on:

e|---|
B|---|
G|-5-|
D|---|
A|-6-|
E|---|
#----------------------------PLEASE NOTE-----------------------------#
# This represents the author's own work and interpretation of the    #
# song. To be used only for private study, scholarship, or research. #
#--------------------------------------------------------------------#

blog comments powered by Disqus