Youth Tab

More Beach Fossils Tabs

Artist: Beach Fossils
 Album: Beach Fossils
  Song: Youth

Tabbed by: anton hallmann

YOUTH

guitar 1
|---------------4-4-4----------|
|---------------------5-5-5-5--|
|-4-4-4-6-6-6-6----------------|
|------------------------------|
|------------------------------|
|------------------------------|

|------------------------------|
|-7-7-7------------------------|
|-------4-4-4-4-6-6-6----------|
|---------------------6-6-6-6--|
|------------------------------|
|------------------------------|

guitar 2
|------------------------------|
|-----------0-0----------------|
|------1--------1--------------|
|--------2--------2------------|
|-2-2--------------------------|
|------------------------------|

verse
play intro guitar 1 + 2
or 2 just couple of E chords

solo
|------------------------------|
|------------------------------|
|-4-4-4---4-6-4----------------|
|-------6-------6-4------------|
|------------------------------|
|------------------------------|
                                | 3x
|------------------------------|
|------------------------------|
|-----------4---4-6-4----------|
|-4-4-4-4h6---6-------6-4------|
|------------------------------|
|------------------------------|

then last time:
|------------------------------|
|------------------------------|
|-4-4-4---4-6-4----------------|
|-------6-------6-4------------|
|------------------------------|
|------------------------------|

|------------------------------|
|---------------------5-5-5-5--|
|-----------4---4-6-4----------|
|-4-4-4-4h6---6----------------|
|------------------------------|
|------------------------------|

outro:
|-7-7--------7-7-7-97-7--------|
|-----7-7-9-------------7-7-9--|
|------------------------------|
|------------------------------|
|------------------------------|
|------------------------------|

last time:
|-7-7--------------------------|
|-----7-7-9--7-9-7-5-7-5555555-|
|------------------------------|
|------------------------------|
|------------------------------|
|------------------------------|

guitar 2:
|--------------------------|-------------|
|--------------------------|-------------|
|-4-4-------4-4-46-4-------|-------------|
|-----4-4-6----------4-4-6-|-4-6-4-2-4-2-|
|--------------------------|-------------|
|--------------------------|-------------|

I'm getting on that bus
Got to get out of town
It's all that's on my mind
Leave the city behind

I see the mountain side
The trees and sky go by
I'm out here on my own
I might not come back home

I gaze out my window
Scenery comes and goes
I let the time pass by
So I'll be by your side

Heads out like times before
Nothing to wear me for
I'm on my way to you
It's all I want to do 

#----------------------------PLEASE NOTE-----------------------------#
# This represents the author's own work and interpretation of the    #
# song. To be used only for private study, scholarship, or research. #
#--------------------------------------------------------------------#

blog comments powered by Disqus