Wide Awake Tab

More Beach Fossils Tabs

Artist: Beach Fossils
 Album: Beach Fossils
  Song: Wide Awake

Tabbed by: Anton Hallmann

INTRO:

GUITAR ONE
|-------------------------------------------------|
|-------------------------------------------------|
|-6-6-6-9-4-4----4-4---4--2-2-2-4-1-1----1-1---1--|
|-0-0-0-0-0---0------0----0-0-0-0-0---0------0----|
|-------------------------------------------------|
|-------------------------------------------------|

VERSE
dont know what guitar 2 does - sounds like the intro but with variations
live they just play with guitar one in verse:

GUITAR ONE

A and F#m
|-------------------------------|
|-------------------------------|
|-------------------------------|
|--77-77-77-777-44-44-444-444---|
|--77-77-77-777-44-44-444-444---|
|--55-45-45-555-22-02-222-022---|

you can just strum it too

   A       F#m
So wide, awake,

A                      F#m
Within your whole wide world,

     A            F#m etc...
I'll risk all our time,
This worlds with all your thoughts,
Warm rays of the sun,
We're leaving it all,
But you're still taking some.


SOLO

GUITAR 1 and 2
|---------------------------------------|
|---------------------------------------|
|-9-99-8-9-8-6666-444-------------------|
|---------------------6-6-676-444-6666--|
|---------------------------------------|
|---------------------------------------|

|---------------------------------------|
|---------------------------------------|
|-9-99-8-9-8-6666-444-------------------|
|---------------------6-6-676-99999999--|
|---------------------------------------|
|---------------------------------------|

GUITAR 1 on and on

GUITAR 2 
|------------------------------------------------------------------|
|-----------12----------14-12--7--9-7--9--10-9----9----------------|
|-----13-------13------------------------------11---11-666-9-6-99--|
|--14----14-------14-----------------------------------------------|
|------------------------------------------------------------------|
|------------------------------------------------------------------|

Forgot the way,
I don't know which way we came,
I lost all of my days,

#----------------------------PLEASE NOTE-----------------------------#
# This represents the author's own work and interpretation of the    #
# song. To be used only for private study, scholarship, or research. #
#--------------------------------------------------------------------#

blog comments powered by Disqus