Twelve Roses Tab

More Beach Fossils Tabs

Artist: Beach Fossils
 Album: Beach Fossils
  Song: Twelve Roses

Tabbed by: anton hallmann

INTRO:

guitar 1 (both twice)
e|----------------------|
B|----------------------|
G|---4---4---6---6---4--|
D|-6---6---6---6---6----|
A|----------------------| 3x
E|----------------------|

e|----------------------|
B|---5---5---7---7---5--|
G|-6---6---6---6---6----|
D|----------------------|
A|----------------------|
E|----------------------|

guitar 2
e|----------------------------|
B|----------------------------|
G|----------------------------|
D|-------------------2-2-4-2--|
A|-------2-2-2-4-4-4----------| 3x
E|-0-0-0----------------------|

e|----------------------------|
B|----------------------------|
G|----------------------------|
D|----------------------------|
A|----------------------------|
E|-55555555555-222222222222---|

VERSE:
just guitar 2


CHORUS
(start with second part of guitar 1 so
other way round than discribed above)

VERSE

OUTRO
guitar 2 just goes on with normal riff

guitar 1 "solo"
e|------------------------------------------|
B|---------------------------------5555775--|
G|--6-6-6-6-4-------------------------------|
D|------------6-66-7-7-7-6-6-6-6-6----------|
A|------------------------------------------|
E|------------------------------------------|
#----------------------------PLEASE NOTE-----------------------------#
# This represents the author's own work and interpretation of the    #
# song. To be used only for private study, scholarship, or research. #
#--------------------------------------------------------------------#

blog comments powered by Disqus