Sometimes Tab

More Beach Fossils Tabs

Artist: Beach Fossils
 Album: Beach Fossils
  Song: Sometimes

Tabbed by: anton hallmann

SOMETIMES

intro:
guitar 1
|------------------------------|
|------------------------------|
|------------------------------|
|-----6-----6-8-6-------6------|
|-4-4---4-4-------8-6-8---8-6--|
|------------------------------|

|-------------------------------|
|-------------------------------|
|-------------------------------|
|-------------6-8-6-------6-----|
|-----8-----8-------8-6-8---8-6-|
|-6-6---6-6---------------------|

guitar 2
|------------------------------|
|-----4-6-4--------------------|
|-666-------6-3-6-1-3----------|
|------------------------------| 4x
|------------------------------|
|------------------------------|

|-6666-------------------------|
|-------66-4-6--6-7-6-4h6------|
|------------------------------|
|------------------------------|
|------------------------------|
|------------------------------|


verse:
guitar 1

solo:
|---------------------------------------------------------------|
|---------------------------------------------------------------|
|--666-6/8-10~--6-8-6--6-------6---6-8-10-8-66-6-------6--------|
|------------------------8-6-8---8---------------8-6-8---8-6/11-|
|---------------------------------------------------------------|
|---------------------------------------------------------------|
not sure about this ^^
then (last part just at the end)
|--4-4---4-------|--4--4--4--6-6---4-4---4-|
|------6---6-----|-6--6--6--6-----6-----6--|
|------------3-6-|-------------------------|
|----------------|-------------------------|
|----------------|-------------------------|
|----------------|-------------------------|

repeat verse
then solo with ending

Well I can hardly stand
But I really don't care to know
And you can take my hand
But I don't care where we go
And if you think you know
What I'm thinking about
Then I can read your thoughts
Without any doubt
So we can go
Well let's go home

And if I happen to fall
Then please don't pick me up
Cause we're enjoying our time
And I wouldn't want to interrupt
They worked out so well
When you discovered that it's all the same
We get lost sometimes
But the reality will keep us sane

I know I think too much
I know I waste my time
And I can't figure out
Which one is yours or mine
That's fine
I really couldn't say I mind 
#----------------------------PLEASE NOTE-----------------------------#
# This represents the author's own work and interpretation of the    #
# song. To be used only for private study, scholarship, or research. #
#--------------------------------------------------------------------#

blog comments powered by Disqus