#----------------------------PLEASE NOTE-----------------------------#
# This represents the author's own work and interpretation of the    #
# song. To be used only for private study, scholarship, or research. #
#--------------------------------------------------------------------#

Artist: Beach Fossils
 Album: What A Pleasure
  Song: What A Pleasure

[http://www.indieguitartabs.com/bands/beach_fossils/what_a_pleasure.html]

Tabbed by: Anton Hallmann

INTRO:

guitar 1
e|----------0-----------|
B|-------10---10----10--|
G|----11---------11-----|
D|-12-------------------|
A|----------------------| 4x then guitar 2
E|----------------------| comes in

guitar 2
e|--------------------------------------------------|
B|--------------------------------------------------|
G|--------------------------------------------------|
D|--------------------------------------------------|
A|-7/9-9999-999-5-5555-777/9-9999-999-5-5555-777/9--|
E|--------------------------------------------------|

VERSE:
no guitar

guitar 1 comes in:
e|-12-------12-------12-------12-----------|
B|----10-------10-------10-------10----10--|
G|-------11-------11-------11-------11-----|
D|-----------------------------------------|
A|-----------------------------------------|
E|-----------------------------------------|

e|-10-------10-------10-------10-----------|
B|----10-------10-------10-------10----10--|
G|-------11-------11-------11-------11-----|
D|-----------------------------------------|
A|-----------------------------------------|
E|------------------------------------------|


BRIDGE:

guitar 2 - part 1
e|-----------------------------------------|
B|-----------------------------------------|
G|-------------------11-11-----------------|
D|-11-11-11-11-11-11-------9-9-9-77777777--|
A|-----------------------------------------|
E|-----------------------------------------|

part 2 (with guitar 2 together)
e|---------------------------------|
B|---------------------------------|
G|---------------------------------|
D|------------7777--------9-7------|
A|-9-9-79-7-9------9-9-79-----7-9--|
E|---------------------------------|

guitar 1 (together with guitar 2 part 2)
e|----------------------------------------------------|
B|-----------------10-10-10-10------------12-10-------|
G|-11-11-9-11-9-11-------------11-11-9-11-------9-11--|
D|----------------------------------------------------|
A|----------------------------------------------------|
E|----------------------------------------------------

again guitar 2 part 1  
then both together again

SOLO:

guitar 1
e|----12----12----12--------------------|
B|-10----10----10----10----10----10-----|
G|----------------------11----11----11--|
D|--------------------------------------| 4x
A|--------------------------------------|
E|--------------------------------------|


guitar 2
e|--------------------------------------|
B|--------------------------------------|
G|--9--9--9--9--9--9--9-----------------|
D|--------------------------7-----7-----| 4x
A|-----------------------9-----9-----9--| 
E|--------------------------------------|


"I TAKE IT ALL AWAY" PART

guitar 1
e|--9--9--9--9--9---------------------|
B|-10-10-10-10-10-12-12-10-10-10-10---|
G|---------------(11-11-11-11-11-11)--|
D|------------------------------------|
A|------------------------------------|
E|------------------------------------|

guitar 2
e|-------------------------------------------|
B|-------------------------------------------|
G|-------------------------------------------|
D|-11-11-11-11-11-11-11-11--7-7-7-7-7-7-7-7--|
A|-------------------------------------------|
E|-------------------------------------------|


OUTRO

guitar 1
e|-------------------------------------------|
B|-------------------------------------------|
G|--11-9-7-9-7-4-7-2-4-----------------------|
D|-------------------------------------------|
A|-------------------------------------------|
E|-------------------------------------------|

guitar 2
e|-------------------------------------------|
B|-------------------------------------------|
G|-------------------------------------------|
D|-------------------------------------------|
A|---9-7-5-7-5-2-5-0-2-----------------------|
E|-------------------------------------------|

you can play both guitars at once:
e|-------------------------------------------|
B|-------------------------------------------|
G|--11-9-7-9-7-4-7-2-4-----------------------|
D|-------------------------------------------|
A|---9-7-5-7-5-2-5-0-2-----------------------|
E|-------------------------------------------|

then:
guitar 1 (whole part twice
e|-12-------12-------12-------12-----------|
B|----10-------10-------10-------10----10--|
G|-------11-------11-------11-------11-----|
D|-----------------------------------------|
A|-----------------------------------------| 1x
E|-----------------------------------------|

e|-10-------10-------10-------10-----------|
B|----10-------10-------10-------10----10--|
G|-------11-------11-------11-------11-----|
D|-----------------------------------------|
A|-----------------------------------------| 1x
E|-----------------------------------------|

e|-12-------12--10--------10--(12-10)-|
B|----10-----------10---------(---10)-| ( ) - only last time
G|-------11-----------11------(---11)-|
D|------------------------------------|
A|------------------------------------| 2x
E|------------------------------------|

e|-10-------10-------10-------10-----------|
B|----10-------10-------10-------10----10--|
G|-------11-------11-------11-------11-----|
D|-----------------------------------------|
A|-----------------------------------------|
E|-----------------------------------------|

guitar 2
e|-----------------------------------------|
B|-----------------------------------------|
G|-----------------------------------------|
D|-9-7---9-7---9-7---9-7---7---end on -----|
A|-----9-----9-----9-----9------------5----|
E|-----------------------------------------|