#----------------------------PLEASE NOTE-----------------------------#
# This represents the author's own work and interpretation of the    #
# song. To be used only for private study, scholarship, or research. #
#--------------------------------------------------------------------#

Artist: Beach Fossils
 Album: Shallow 7"
  Song: Lessons

[http://www.indieguitartabs.com/bands/beach_fossils/lessons.html]

Tabbed by: Anton Hallmann

INTRO:

guitar 1:
|-----------12-------------|
|-----10--------10----10---|
|--11----11--------11------|
|--------------------------| 2x
|--------------------------|
|--------------------------|

|-----------9-------------|
|-----10-------10----10---|
|--11----11-------11------|
|-------------------------| 2x
|-------------------------|
|-------------------------|

guitar 2:
|----------12-12-----9-9---9-9---------|
|----------10-10----1010--1010---------|
|--------------------------------------|
|--------------------------------------|
|--------------------------------------|
|--------------------------------------|


VERSE:

guitar 2:
|-12-12-12-12-12--9--9--9--9--9--------|
|-10-10-10-10-10-10-10-10-10-10--------|
|--------------------------------------|
|--------------------------------------|
|--------------------------------------|
|--------------------------------------|


CHORUS:

guitar 1
|--------------------------|
|--------------------------|
|--777---------------------|
|------999-777-------------|
|--------------999-77s5-2--|
|--------------------------|

|----------------------------|
|----------------------------|
|--777-----------------------| // means hit the 5 a few times
|------999-777---------------|
|--------------999-77s555//--|
|----------------------------|

guitar 2:
|-12-12-12-12-12--9--9--9--9--9--------|
|-10-10-10-10-10-10-10-10-10-10--------|
|--------------------------------------|
|--------------------------------------|
|--------------------------------------|
|--------------------------------------|


BRIDGE:

guitar 1 (keep hitting the 5 and get into):
|--------------------------------------------|
|--------------------------------------------*|
|--------------------------------------------|
|--4---4---4---4---4---4---4---4---9----9----|
|----5---5---5---5---5---5---5---5---10---10-|
|--------------------------------------------|

|---------------------------|
|---------------------------|
|---------------------------|
|--7---7---7---7---4---4----|
|----9---9---9---9---5---5--|
|---------------------------|

VERSE
CHORUS (guitar 1 plays the first section 
which ends on 2 on a string 3x, then once
5 and into)
BRIDGE

OUTRO:
guitar 1 
|---------------------------------------------|
|---------------------------------------------|
|--7777777777777------------------------------|
|----------------9-9-7---7---7---7---4---4----|
|----------------------9---9---9---9---5---5--|
|---------------------------------------------|

guitar 2:
|--------------------------------------------------|
|---------------10-10------------------------------|
|--777777777777-------11-11-11-11-11-11-11-11-9-9--|
|--------------------------------------------------|
|--------------------------------------------------|
|--------------------------------------------------|