#----------------------------PLEASE NOTE-----------------------------#
# This represents the author's own work and interpretation of the    #
# song. To be used only for private study, scholarship, or research. #
#--------------------------------------------------------------------#

Artist: Beach Fossils
 Album: Beach Fossils
  Song: Lazy Day

[http://www.indieguitartabs.com/bands/beach_fossils/lazy_day.html]

Tabbed by: anton hallmann

intro:
guitar 1
|----------------------------------|
|----------------------------------|
|--4-4-4-4-4-4-4-4-4-4-4-4-4-4-4-4-|
|----------------------------------|
|----------------------------------|
|----------------------------------|

|---------------------------------|
|---------------------------------|
|-4-4-4---------------------------|
|------6-4-4-464--1-1-12-1--------|
|---------------------------------|
|---------------------------------|

guitar 2
|----------------------------------------------|
|------4---4-2-4---4--44444-777775-4-4442------|
|--4--------------------------------------4444-|
|----6-----------------------------------------|
|----------------------------------------------|
|----------------------------------------------|

verse
guitar 1 intro

solo guitar 2
|---------------4-2---------------2---|
|-4-4-4-4-4-4-4-----4444-2-4-4444---4-|
|-------------------------------------|
|-------------------------------------|
|-------------------------------------|
|-------------------------------------|

|--------------4-2---------------------------|
|-444445-44444-----4444-2-44444-2-42-4-------|
|-----------------------------------or end 4-|
|--------------------------------------------|
|--------------------------------------------|
|--------------------------------------------|

outro:
guitar 1
|--------------------------------------|
|--------------------------------------|
|--------------------44444444----------|
|-66666666-444444444----------44444444-|
|--------------------------------------|
|--------------------------------------|

guitar 2
|---------------------------------|
|---4-4-4-4-4-4-5-4---------------|
|--4-4-4-4-4-4-4------------------|
|---------------------------------|
|---------------------------------|
|---------------------------------|