#----------------------------PLEASE NOTE-----------------------------#
# This represents the author's own work and interpretation of the    #
# song. To be used only for private study, scholarship, or research. #
#--------------------------------------------------------------------#

Artist: Beach Fossils
 Album: Beach Fossils
  Song: Golden Age

[http://www.indieguitartabs.com/bands/beach_fossils/golden_age.html]

Tabbed by: anton hallmann

Tuning: standard

INTRO:
guitar 2
e|---------------------------------------|
B|---------------------------------------|
G|---------------------------------------|
D|--77777777777777-66-44444444444444-66--|
A|---------------------------------------|
E|---------------------------------------|

guitar 1
e|-9----------------9---------------9---------------12----12----12----12--|
B|---10---10---10-----10---10---10----10---10---10-----10----10----10-----|
G|------9----9-----------9----9----------9----9---------------------------|
D|------------------------------------------------------------------------|
A|------------------------------------------------------------------------|
E|------------------------------------------------------------------------|

VERSE
only guitar 2

CHORUS
guitar 1 (four times - last time only the 9 at the
end without three times 6th fret before)
e|--------------------------------------------------------------|
B|-9---9---9---9---10---10---12---12---7---7---7---7------------|
G|---9---9---9---9----9----9----9----9---7---7---7---7-666-999--|
D|--------------------------------------------------------------|
A|--------------------------------------------------------------|
E|--------------------------------------------------------------|

guitar 2
e|--------------------------------------|
B|--------------------------------------|
G|--------------------------------------|
D|--66666666-7779997-44444444-22222222--|
A|--------------------------------------|
E|--------------------------------------|

INTRO RIFF
VERSE 2
CHORUS
INTRO RIFF
VERSE 3
CHORUS
INTRO RIFF