#----------------------------PLEASE NOTE-----------------------------#
# This represents the author's own work and interpretation of the    #
# song. To be used only for private study, scholarship, or research. #
#--------------------------------------------------------------------#

Artist: Beach Fossils
 Album: What A Pleasure
  Song: Face It

[http://www.indieguitartabs.com/bands/beach_fossils/face_it.html]

Tabbed by: Anton Hallmann

guitar 1:
|------------------------------------------|
|------------------------------------------|
|------------------------------------------|
|--6-6-6-6-6-6-6-6---18-18-18-18-18-18-18--|
|------------------------------------------| 3x
|------------------------------------------|

|------------------------------------------|
|------------------------------------------|
|------------------------------------------|
|--6-6-6-6-6-6-6-6---18-18-18-18-16-13~----|
|------------------------------------------|
|------------------------------------------|

|---------------------------------------------------------|
|---------------------------------------------------------|
|---------------------------------------------------------|
|--18-18-18-16-13-13-11-11-11-13-11-9-11-9-9999-11-11-11--|
|---------------------------------------------------------|
|---------------------------------------------------------|

guitar 2: () notes are played nearly silent at the beginning
B
|--------------------------------|
|--------12----------12----------|
|-----11----11--11------11---11--|
|-(9)--------------9-------9-----|
|--------------------------------|
|--------------------------------|

G#m
|--------------------------------|
|-------9------------9-----------|
|-----8---8-----8------8---8-----|
|-(6)---------6---6------6-------|
|--------------------------------|
|--------------------------------|

B
|--------------------------------|
|--------12----------12----------|
|-----11----11--11------11---11--|
|-(9)--------------9-------9-----|
|--------------------------------|
|--------------------------------|

G#m
|--------------------------------|
|-------9------12-12--9-9--------|
|-----8---8-------11----8--------|
|-(6)----------------------------|
|--------------------------------|
|--------------------------------|


VERSE:
guitar 2, then guitar 1 comes in.

POST-VERSE:

Bb picking??
|-----7----9--7--------------------------------|
|--7----9------------------------------------|
|------------------------------------------|
|------------------------------------------|
|------------------------------------------|
|------------------------------------------|


then "I GIVE UP..."-part
guitar 1/2:
|-----------------------------|
|---------------------7-9-7---|
|--8-8-6-8-6-4--66-88---------|
|-----------------------------|
|-----------------------------|
|-----------------------------|

|-----------------------------|
|-----------------------------|
|--8-8-6-8-6-4-66-4-------4-	---|
|--------------------6~-6-----|
|-----------------------------|
|-----------------------------|

bassline:
|---------------------------------------|
|---------------------------------------|
|--22222222-44444444--------------------|
|--------------------44444444-22224444--|

in between some:
|------------------------|
|------------------------|
|------------------------|
|--18-18-18-18-16-13~----|
|------------------------|
|------------------------|

INTRO
VERSE
POST-VERSE
GIVE UP PART/OUTRO