#----------------------------PLEASE NOTE-----------------------------#
# This represents the author's own work and interpretation of the    #
# song. To be used only for private study, scholarship, or research. #
#--------------------------------------------------------------------#

Artist: Beach Fossils
 Album: Beach Fossils
  Song: Daydream

[http://www.indieguitartabs.com/bands/beach_fossils/daydream.html]

Tabbed by: anton hallmann

DAYDREAM

intro:

guitar 1
|----------------------------------------------------------------------|
|----------10-12-10----10----------------------------------------------|
|-11-11-11----------11----11-11----------------11----------------------|
|-------------------------------12-12-12-12-12---12-12-12-12-12-12-12--|
|----------------------------------------------------------------------|
|----------------------------------------------------------------------|

guitar 2
|-----------------------------------------------|
|-----------------------------------------------|
|-----------------------------------------------|
|--0-0-0-2-4-5-4-2-4-2---------4-4-----0--------|
|----------------------0-0-2-2-----0-2---2-2-2--|
|-----------------------------------------------|

verse:
just guitar 2

you can play:
 D G (no index finger on A-string fret 2, leave open) Bm
as chords

intro riff
verse

bridge:
guitar 1
|-12-12-12-10-10-10---------------------|
|--------------------10-10-12-12-12-12--|
|---------------------------------------|
|---------------------------------------|
|---------------------------------------|
|---------------------------------------|

guitar 2
|---------------------------------------|
|--5------------3-----------------------|
|----0-0-0-0-0----4-4-4-4-4-------------|
|---------------------------------------|
|---------------------------------------|
|---------------------------------------|

intro riff 

On my own
Sad when you're around
I think I lose myself
The second that I see her around

And not a day goes by
Oh no, I doubt
Time, time can't remember
What I'm thinking about
Cause when it's caught up
You're tangled in those dreams

I go uptown
On a quiet day
Just to gather my thoughts
When I don't know what to say

And we go outside
When the morning's dark
And we fall in the grass
Of an open park
And the sun will break
When our hands hit the tree

I am on time
Though I didn't try
And the second move slow
But the moments all too fast

And not a day goes by
Oh no, I doubt
Time, time can't remember
What I'm thinking about
Cause when it's caught up
You're tangled in those dreams

Daydream