Adversity Tab

More Beach Fossils Tabs

Artist: Beach Fossils
 Album: What A Pleasure
  Song: Adversity

Tabbed by: Anton Hallmann

INTRO:

guitar 1 (2 times):
|--------------------------------------|
|-------10----10----10-----------------|
|--11~-----11----11----------9-9----9--|
|----------------------12-12-----12----|
|--------------------------------------| 
|--------------------------------------|

|-----------------------------------------|
|-----10----10----10----------------------| ()-leave that note second time
|--11----11----11----11-------9-9----(9)--|
|-----------------------12-12-----12------|
|-----------------------------------------| 
|-----------------------------------------|

guitar 2 (plays the same just somewhere else):
|------5----5-----5-----------------|
|--7~----7-----7--------5-5-----5---|
|------------------7-7-------7------|
|-----------------------------------|
|-----------------------------------|
|-----------------------------------|

|-----5----5----5---------------------|
|--7----7----7----7------5-5-----(5)--| ()-leave that note second time
|-------------------7-7-------7-------|
|-------------------------------------|
|-------------------------------------|
|-------------------------------------|


VERSE:

guitar 2 comes in:
|-------------------------------------------------|
|--------------000---------------(0)--------------| () - that note isnt played every
|----2---2---2-----2---2--------------------------| time
|--4---4---4---------4---4----4-------4---4---4---|
|---------------------------5---5---5---5---5---5-|
|-------------------------------------------------|

and guitar 1 plays (not sure but fits well to play this harmony):
|-----------------------------|
|-----------------------------|
|-----------------------------|
|--77777-999-7777-------------|
|-----------------99999-------|
|-----------------------10//--| //just strum

then, both guitars:
|---------------------------------------------------|
|---------------------------------------------------|
|----7---7---7-99999---7---7--7-999-7---------------|
|--9---9---9---------9--9---9---------99999999------|
|----------------------------------------------(12)-| () - only play last time
|---------------------------------------------------|


bass and drums
then back to 
VERSE (but dont play the (12) that time



BRIDGE:

guitar 2
|---------------------------------------------------------------|
|---------------------------------------------------------------|
|---------------------------------------------------------------|
|----7---7---7--999--7---7--------------------------------------|
|-9~---9---9-----------9---9-----9----9-----10-10-10--9----9----|
|----------------------------10~---10---10--------------10---10-|

SOLO:

guitar 1 (slide) :
|---------------------------|
|--10-12-15-12-10-12-7-555--|
|---------------------------|
|---------------------------|
|---------------------------|
|---------------------------|

last time
|---------------------------|
|--10-12-15-17-19-17-15-12--|
|---------------------------|
|---------------------------|
|---------------------------|
|---------------------------|

guitar 2:
|---------------------------|
|---------------------------|
|---------------------------|
|--7-9-12-9-7-9-4-222-------|
|---------------------------|
|---------------------------|


VERSE/CHORUS:

guitar 1 and 2:
|----------------------------------------------|
|----------------------------------------------|
|----7---7---7-99999---7---7---999-7-----------|
|--9---9---9---------9---9---9-------99999999--|
|----------------------------------------------| 2x
|----------------------------------------------|

then guitar 2 (1 stays the same),
|--------------------------------------|
|--10-10/12-7-10-7-7-5-5/12-5-7-5-5	-----|
|---7--7/-9-4--7-4-4-2-2/-9-2-4-2-2----|
|--------------------------------------|
|--------------------------------------|
|--------------------------------------|

INTRO

OUTRO:
guitar 1:
|---------------------------------------------------|
|--12-------12-------12------10------10------10-----|
|-----11-------11-------11------11------11------11--|
|--------12-------12---------------12------12-------|
|---------------------------------------------------|
|---------------------------------------------------|

guitar 2:
|--7------7-----7----5-----5-----5----|
|----7------7-----7----7-----7-----7--|
|------7------7----------7-----7------|
|-------------------------------------|
|-------------------------------------|
|-------------------------------------|

#----------------------------PLEASE NOTE-----------------------------#
# This represents the author's own work and interpretation of the    #
# song. To be used only for private study, scholarship, or research. #
#--------------------------------------------------------------------#

blog comments powered by Disqus