#----------------------------PLEASE NOTE-----------------------------#
# This represents the author's own work and interpretation of the    #
# song. To be used only for private study, scholarship, or research. #
#--------------------------------------------------------------------#

Artist: Barclay & Ichinose
  Song: The Scene That Celebrates Itself

[http://www.indieguitartabs.com/bands/barclay_ichinose/the_scene_that_celebrates_itself.html]

Tabbed by: ERKontact

Riff
e|----------------------------------|
B|----------------------------------|
G|----------------------------------|
D|-------2-3-2----------------------|
A|---2-3-------3-2-2----------------|
E|-0--------------------------------|

e|----------------------------------|
B|----------------------------------|
G|-------2-3-2----------------------|
D|---2-3-------3-2-2----------------|
A|----------------------------------|
E|-0--------------------------------|

-------------------------------------

e|----------------------------------|
B|----------------------------------|
G|----------------------------------|
D|-2>3-3>2---------7>8-8>7----------|
A|-0000000---------0000000----------|
E|----------------------------------|

-------------------------------------
Rit
e|----------------------------------|
B|----------------------------------|
G|--9-10----------------------------|
D|--7-7-----------------------------|
A|--7-7-----------------------------|
E|----------------------------------|

-------------------------------------
Solo Rhythm
e|-----------------------------------|
B|-----------------------------------|
G|-----------------------------------|
D|-2-3-3-5-5-3-2-3--2-3-3-5-5-3-7-8--|
A|-000000000000000--000000000000000--|
E|-----------------------------------|