No One's Gonna Love You Tab

More Band of Horses Tabs

Artist: Band of Horses
 Album: Cease To Begin
  Song: No One's Gonna Love You

Tabbed by: Sebastian Brock

This should be close to 100% accurate.It's really hard to distinguish guitar 
parts with all the double tracking, delay, and reverb. 
Let me know of any glaring mistakes.


Guitar 1 Tuning: E flat
Guitar 2 Tuning: E flat

Guitar 1
With heavy delay, so that when you play quarter notes, the delay comes in as
half notes in time with what you play.

Fingerpicked.

Intro
eb|----------------------------------------------|
Bb|-7-7-7-7\5-5-10----10-10-10-10-10-10-10-10\---|
Gb|----------------------------------------------|
Db|---5---5\--5----------11----11----11----11\---|
Ab|-5---5--\4---9-----9-----9-----9-----9----\---|
Eb|----------------------------------------------|

eb|----------------------------------------------|
Bb|-7-7-7-7-5-5-10----10-10-10-10-10-10-12--10---|
Gb|----------------------------------------------|
Db|---5---5---5----------11----11----11--------11|
Ab|-5---5---4---9-----9-----9-----9--------9-----|
Eb|----------------------------------------------|

eb|----------------------------------------------|
Bb|-7-7-7-7\5-5-10----10-10-10-10-10-10-10-10\---|
Gb|----------------------------------------------|
Db|---5---5\--5----------11----11----11----11\---|
Ab|-5---5--\4---9-----9-----9-----9-----9----\---|
Eb|----------------------------------------------|

Verse

eb|----------------------------------------------|
Bb|-7-7-7-7-5-5-10----10-10-10-10-10-10-12--10---|
Gb|----------------------------------------------|
Db|---5---5---5----------11----11----11--------11|
Ab|-5---5---4---9-----9-----9-----9--------9-----|
Eb|----------------------------------------------|

eb|----------------------------------------------|
Bb|-7-7-7-7\5-5-10----10-10-10-10-10-10-10-10\---|
Gb|----------------------------------------------|
Db|---5---5\--5----------11----11----11----11\---|
Ab|-5---5--\4---9-----9-----9-----9-----9----\---|
Eb|----------------------------------------------|

Pre-Chorus
"But no one...."

eb|-------------------|
Bb|-3-3-3-3-3-3-3-3---|
Gb|-------------------|
Db|---4---4---4---4---|
Ab|-2---2---2---2-----|
Eb|-------------------|

Chorus
 
eb|--------------------------------------|
Bb|-8-8-8-8-7-7-7-7\2-2-2-2-2-2-2-2------|
Gb|--------------------------------------|
Db|---9---9---7---7\--2---2---2---2------|
Ab|-7---7---5---5--\0---0---0---0--------|
Eb|--------------------------------------|

Pre-Bridge
"But someone, they could've warned you..."

eb|---------------------------------------------------|
Bb|-10-10-10-10-10-10-10-10-12-12-12-12-14-14-14-14---|
Gb|---------------------------------------------------|
Db|----11----11----11----11----12----12----14----14---|
Ab|-9-----9-----9-----9-----10----10----12----12------|
Eb|---------------------------------------------------|

Bridge

eb|--------------------------------------------------|
Bb|-19----------10-----------------------------------|
Gb|--------------------------------------------------|
Db|----19----19----11---11----12----12----14----14---|
Ab|-17----17----9-----9----10----10----12----12------|
Eb|--------------------------------------------------|

Guitar 2

Intro

eb|-9----9----9h10p9-10/12---9----9----9h10p9-7\5---|
Bb|---10---10------------------10---10--------------|
Gb|-------------------------------------------------|
Db|-------------------------------------------------|
Ab|-------------------------------------------------|
Eb|-------------------------------------------------|

Verse

eb|-9----9----9h10p9-10/12---9----9----9h10p9-7\5---|
Bb|---10---10------------------10---10--------------|
Gb|-------------------------------------------------|
Db|-------------------------------------------------|
Ab|-------------------------------------------------|
Eb|-------------------------------------------------|


Pre-Chorus
I don't think there is actually another guitar that plays here, if so it's just a double track of guitar 1. Strumming a b minor chord once with heavy reverb sounds good with it though.

Chorus
Again, all I hear is just a double track of guitar 1. Slowly arpeggiating the chords would sound good. Chords are Em, D, A.

Pre-Bridge

eb|------------|
Bb|-10-12-14---|
Gb|------------|
Db|------------|
Ab|------------|
Eb|------------|

Bridge

eb|------------------------------------------9------7-----5-----7-------|
Bb|--------7-10-7---10---7-------7-10-7---10---10\8---8\7---7/8---8-----|
Gb|-7--7h9--------9--------7-7h9--------9---------------------------7---|
Db|---------------------------------------------------------------------|
Ab|---------------------------------------------------------------------|
Eb|---------------------------------------------------------------------|

Structure:
Intro
Verse x2
Pre-Chorus
Chorus x2
Verse x2
Pre-Chorus
Chorus x2
Pre-Bridge
Bridge x4
Verse x2
Pre-Chorus
Chorus x2
Pre-Bridge
Bridge

************************************

| /   slide up
| \   slide down
| h   hammer-on
| p   pull-off
| ~   vibrato
| +   harmonic
| x   Mute note
| b   Bend
| pb  Pre-bend
| br  Bend release
| pbr Pre-bend release
| brb Bend release bend

************************************
#----------------------------PLEASE NOTE-----------------------------#
# This represents the author's own work and interpretation of the    #
# song. To be used only for private study, scholarship, or research. #
#--------------------------------------------------------------------#

blog comments powered by Disqus