#----------------------------PLEASE NOTE-----------------------------#
# This represents the author's own work and interpretation of the    #
# song. To be used only for private study, scholarship, or research. #
#--------------------------------------------------------------------#

Artist: Antlers
 Album: Hospice
  Song: Kettering

[http://www.indieguitartabs.com/bands/antlers/kettering.html]

Tabbed by: Andrew P

The other one's not wrong, this is just how you play it in the same octave as the 
piano on the track

Capo 7, standard tuning

  1 . 2 . 3 . 4 .  1 . 2 . 3 . 4 .
e|1-1-1-1-1-1-1-3-|5-5-5-5-5-5-5-5-|
b|3-3-3-3-3-3-3-3-|6-6-6-6-6-6-6-6-|
g|2-2-2-2-2-2-2-2-|5-5-5-5-5-5-5-5-|
d|0-0-0-0-0-0-0-0-|3-3-3-3-3-3-3-3-|
a|----------------|----------------|
e|----------------|----------------|

  1 . 2 . 3 . 4 .  1 . 2 . 3 . 4 . 
e|3-3-3-3-1-1-1-0-|10--------------|
b|2-2-2-2-2-2-2-2-|222-2-2-2-2-2-2-|
g|3-3-3-3-3-3-3-3-|333-3-3-3-3-3-3-|
d|0-0-0-0-0-0-0-0-|000-0-0-0-0-0-0-|
a|----------------|----------------|
e|----------------|----------------|

I wish that I had known in that first minute we met
the unpayable debt that I owed you.
Because youíd been abused by the bone that refused you
and you hired me to make up for that. 
Walking in that room when you had tubes in your arms,
those singing morphine alarms out of tune 
kept you sleeping and even, and I didnít believe them 
when they called you a hurricane thunderclap.

When I was checking vitals I suggested a smile.
You didnít talk for awhile, you were freezing. 
You said you hated my tone, it made you feel so alone
and so you told me I ought to be leaving.
But something kept me standing by that hospital bed
I should have quit, but instead I took care of you.
You made me sleep and uneven, and I didnít believe them
when they told me that there was no saving you.

you hold the first chord going into the loud part, otherwise I think it doesn't ever 
change