#----------------------------PLEASE NOTE-----------------------------#
# This represents the author's own work and interpretation of the    #
# song. To be used only for private study, scholarship, or research. #
#--------------------------------------------------------------------#

Artist: Andrew Bird
 Album: Noble Beast
  Song: Oh No

[http://www.indieguitartabs.com/bands/andrew_bird/oh_no.html]

Tabbed by: Clark Wolf

Capo 3 (all tab relative to this)

Intro

Guitar 1:
   (C)            (A)            (C)            (A)
E--------0--------------0---------------0--------------0----------|
B-----------1-------------2----------------1-------------2--------|
G------0--------0-----2-----2---2-----0--------0-----2-----2---2--|
D----2--------------2---------2-----2--------------2---------2----|
A--3----------3---0---------------3----------3---0----------------|
E-----------------------------------------------------------------|

Guitar 2:
E------------------------------------------------------------------|
B-------------------------------------------------2---3---5--------|

Guitar 1:
   (C)            (A)            (C)        
E--------0--------------0---------------0----|
B-----------1-------------2---------------1--|
G------0--------0-----2-----2---2-----0------|
D----2--------------2---------2-----2--------|
A--3----------3---0---------------3----------|
E--------------------------------------------|

Guitar 2:
E--------3--5--7--5--/3-------------------0h1-3--|
B-----------------------5------------------------|

Guitar 1:
   (G)
E-----------------------------------|
B------------0---------------0------|
G------0-------0-------0-------0----|
D----0---0-2-----2---3---3-------3--|
A-----------------------------------|
E--3-------3-------3-------3--------|

Guitar 1: (Guitar 2 strums chords)
  (Dm)         (G)                 (Fm)      (C)
E--1--------------------------------0-0-0-0-0-0--|
B-----3------3--0--------0----------1-1-1-1-1-1--|
G----------2-------0-------0--------1-1-1-1-1-0--|
D--0-----0-----------0-------0-x3---3-3-3-3-3-2--|
A-----------------------------------3-3-3-3-3-3--|
E---------------3------3------------1-1-1-1-1----|

Verse 1:
    (Dm)             (G7)          (Cmaj7)
E------1---1---1---1---1---1---1---1---0---0---0---0---0--|
B---------------------------------------------------------|
G---------------------------------------------------------|
D----0---0---0---0----------------------------------------|
A------------------------------------3---3---3---3---3----|
E--------------------3---3---3---3------------------------|
  In the salsify mains of what was thought but unsaid all the 
calcified arythmatists

   (Fadd4)
E-----------------------------------|
B------------0---------------0------|
G----2---2-------2---2---2-------2--|
D-----------------------------------|
A-----------------------------------|
E--1---1---1---1---1---1---1---1----|
Were doing the math

    (Dm)             (G7)          (Cmaj7)
E------1---1---1---1---1---1---1---1---0---0---0---0---0--|
B---------------------------------------------------------|
G---------------------------------------------------------|
D----0---0---0---0----------------------------------------|
A------------------------------------3---3---3---3---3----|
E--------------------3---3---3---3------------------------|
 And it would take a calculated blow to the head to light the eyes
 Of all the harmless

  (A)
E----------------------------0----|
B----2---2---0---2---2---3--------|
G---------------------------------|
D---------------------------------|
A--0---0---0---0---0---0---0---0--|
E---------------------------------|
 Sociopaths


Chorus:
   Dm                                   G
Oh arm and arm we are the harmless sociopaths
C                               Fadd4
Arm and arm we are the harmless sociopaths
 Dm                      G
Calcium mines are buried deep in your chest
    C                                   A
Oh, calcium mines you bury deep in your chest


Bridge:	
Dm  G                  Dm   G
(Ooo) You're deep in a mine
Dm  G           Dm   G
(Ooo) A calcium mine


Verse 2:(Same as C-A pattern in Intro, with Guitar 2 playing tab)
          C                     A
Let's get out of here, past the atmosphere
            C                               A
Squint your eyes and no one dies or goes to jail

E---------------------------------------------------------------------|
B--------------------------------------------2---3---5----------------|
         C                     A
Past the silver bridge, oh the silver bridge

E-----------------------3--5--7---5/3---------------------------------|
B-------------------------------------5-------------------------------|

        C                          G
Wearing nothing but a onesie and a veil

E-----------------------------------------0h1--3---------------|
B--------------------------------------------------------------|

Bridge

Chorus

Bridge 

Bum, Bum part:
Dm,G x3 Fm, C

Verse 2 (continuing C-A progression till end, with whistles)