#----------------------------PLEASE NOTE-----------------------------#
# This represents the author's own work and interpretation of the    #
# song. To be used only for private study, scholarship, or research. #
#--------------------------------------------------------------------#

Artist: Andrew Bird
  Song: First Song

[http://www.indieguitartabs.com/bands/andrew_bird/first_song.html]

Tabbed by: Doc Brown

Time Signature: 3/4
Key: D
Tuning: Standard


INTRO [0:00 - 0:38]

 || A7 ||

   D             D             D             D
e|-----2---2---|-----2---2---|-----2---2---|-----2---2---|
b|-----3---3---|-----3---3---|-----3---3---|-----3---3---|
g|-----2---2---|-----2---2---|-0h2-2---2---|-0h2-2---2---|
d|-0-----------|-------------|-0-----------|-0-----------|
a|-------------|-0-----------|-------------|-------------|
e|-------------|-------------|-------------|-------------|


VERSE [0:38 - 1:05]

   D             D             D             D
e|-----2---2---|-----2---2---|-----2---2---|-----2---2---|
b|-----3---3---|-----3---3---|-----3---3---|-----3---3---|
g|-----2---2---|-----2---2---|-0h2-2---2---|-0h2-2---2---| (2.5 times)
d|-0-----------|-------------|-0-----------|-0-----------|
a|-------------|-0-----------|-------------|-------------|
e|-------------|-------------|-------------|-------------|
                                            _____________ _____________
                                           | 1,2.        | 3.          |
   A7            A7            A7          | A7          | A7          |
e|-------------|-------------|-----0---0---|-----0---0---|-0-----------|
b|-----2---2---|-----2---2---|-----2---2---|-----2---2---|-2-----------|
g|-----0---0---|-----0---0---|-0h2-2---2---|-0h2-2---2---|-0-----------| (3 times)
d|-----2---2---|-----2---2---|-2---2---2---|-2---2---2---|-2-----------|
a|-0-----------|-------------|-------------|-------------|-0-----------|
e|-------------|-0-----------|-------------|-------------|-------------|

   D             D             D             D
e|-----2---2---|-----2---2---|-----2---2---|----(0)-(2)--|
b|-----3---3---|-----3---3---|-----3---3---|-3-----------|
g|-----2---2---|-----2---2---|-0h2-2---2---|-2-----------|
d|-0-----------|-------------|-0-----------|-0---2---4---|
a|-------------|-0-----------|-------------|-------------|
e|-------------|-------------|-------------|-------------|


CHORUS [1:05 - 1:35]

   G             F#            A             D
e|(3)----------|(2)----------|(0)----------|----(0)-(2)--|
b|---------3---|---------2---|---------2---|-3-----------|
g|-----4-------|-----3-------|-----2-------|-2-----------| (2 times)
d|-5-----------|-4-----------|-2-----------|-0---2---4---|
a|-------------|-------------|-------------|-------------|
e|-------------|-------------|-------------|-------------|

   A7            A7            A7            A7
e|-------------|-------------|-----0---0---|-----0---0---|
b|-----2---2---|-----2---2---|-----2---2---|-----2---2---|
g|-----0---0---|-----0---0---|-0h2-2---2---|-0h2-2---2---| (4 times)
d|-----2---2---|-----2---2---|-2---2---2---|-2---2---2---|
a|-0-----------|-------------|-------------|-------------|
e|-------------|-0-----------|-------------|-------------|

   D             D             D             D
e|-----2---2---|-----2---2---|-----2---2---|-----2---2---|
b|-----3---3---|-----3---3---|-----3---3---|-----3---3---|
g|-----2---2---|-----2---2---|-0h2-2---2---|-0h2-2---2---| (2 times)
d|-0-----------|-------------|-0-----------|-0-----------|
a|-------------|-0-----------|-------------|-------------|
e|-------------|-------------|-------------|-------------|


VERSE [1:35 - 2:00]

   D             D             D             D
e|-----2---2---|-----2---2---|-----2---2---|-----2---2---|
b|-----3---3---|-----3---3---|-----3---3---|-----3---3---|
g|-----2---2---|-----2---2---|-0h2-2---2---|-0h2-2---2---| (2 times)
d|-0-----------|-------------|-0-----------|-0-----------|
a|-------------|-0-----------|-------------|-------------|
e|-------------|-------------|-------------|-------------|

   A7            A7            A7            A7
e|-------------|-------------|-----0---0---|-----0---0---|
b|-----2---2---|-----2---2---|-----2---2---|-----2---2---|
g|-----0---0---|-----0---0---|-0h2-2---2---|-0h2-2---2---| (3 times)
d|-----2---2---|-----2---2---|-2---2---2---|-2---2---2---|
a|-0-----------|-------------|-------------|-------------|
e|-------------|-0-----------|-------------|-------------|

   D             D             D             D
e|-----2---2---|-----2---2---|-----2---2---|----(0)-(2)--|
b|-----3---3---|-----3---3---|-----3---3---|-3-----------|
g|-----2---2---|-----2---2---|-0h2-2---2---|-2-----------|
d|-0-----------|-------------|-0-----------|-0---2---4---|
a|-------------|-0-----------|-------------|-------------|
e|-------------|-------------|-------------|-------------|


CHORUS [2:00 - 2:21]

   G             F#            A             D
e|(3)----------|(2)----------|(0)----------|----(0)-(2)--|
b|---------3---|---------2---|---------2---|-3-----------|
g|-----4-------|-----3-------|-----2-------|-2-----------| (2 times)
d|-5-----------|-4-----------|-2-----------|-0---2---4---|
a|-------------|-------------|-------------|-------------|
e|-------------|-------------|-------------|-------------|

   A7            A7            A7            A7
e|-------------|-------------|-----0---0---|-----0---0---|
b|-----2---2---|-----2---2---|-----2---2---|-----2---2---|
g|-----0---0---|-----0---0---|-0h2-2---2---|-0h2-2---2---| (2 times)
d|-----2---2---|-----2---2---|-2---2---2---|-2---2---2---|
a|-0-----------|-------------|-------------|-------------|
e|-------------|-0-----------|-------------|-------------|

   D             D             D             D
e|-----2---2---|-----2---2---|-----2---2---|-----2---2---|
b|-----3---3---|-----3---3---|-----3---3---|-----3---3---|
g|-----2---2---|-----2---2---|-0h2-2---2---|-0h2-2---2---|
d|-0-----------|-------------|-0-----------|-0-----------|
a|-------------|-0-----------|-------------|-------------|
e|-------------|-------------|-------------|-------------|


WHISTLING [2:21 - 2:46]

   D             D             D             D
e|-----2---2---|-----2---2---|-----2---2---|-----2---2---|
b|-----3---3---|-----3---3---|-----3---3---|-----3---3---|
g|-----2---2---|-----2---2---|-0h2-2---2---|-0h2-2---2---| (2 times)
d|-0-----------|-------------|-0-----------|-0-----------|
a|-------------|-0-----------|-------------|-------------|
e|-------------|-------------|-------------|-------------|

   A7            A7            A7            A7
e|-------------|-------------|-----0---0---|-----0---0---|
b|-----2---2---|-----2---2---|-----2---2---|-----2---2---|
g|-----0---0---|-----0---0---|-0h2-2---2---|-0h2-2---2---| (3 times)
d|-----2---2---|-----2---2---|-2---2---2---|-2---2---2---|
a|-0-----------|-------------|-------------|-------------|
e|-------------|-0-----------|-------------|-------------|

   D             D             D             D
e|-----2---2---|-----2---2---|-----2---2---|-----2---2---|
b|-----3---3---|-----3---3---|-----3---3---|-----3---3---|
g|-----2---2---|-----2---2---|-0h2-2---2---|-0h2-2---2---|
d|-0-----------|-------------|-0-----------|-0-----------|
a|-------------|-0-----------|-------------|-------------|
e|-------------|-------------|-------------|-------------|


VERSE [2:46 - 3:13]

   D             D             D             D
e|-----2---2---|-----2---2---|-----2---2---|-----2---2---|
b|-----3---3---|-----3---3---|-----3---3---|-----3---3---|
g|-----2---2---|-----2---2---|-0h2-2---2---|-0h2-2---2---| (2 times)
d|-0-----------|-------------|-0-----------|-0-----------|
a|-------------|-0-----------|-------------|-------------|
e|-------------|-------------|-------------|-------------|

   A7            A7            A7            A7
e|-------------|-------------|-----0---0---|-----0---0---|
b|-----2---2---|-----2---2---|-----2---2---|-----2---2---|
g|-----0---0---|-----0---0---|-0h2-2---2---|-0h2-2---2---| (3 times)
d|-----2---2---|-----2---2---|-2---2---2---|-2---2---2---|
a|-0-----------|-------------|-------------|-------------|
e|-------------|-0-----------|-------------|-------------|

   A7            A7            D             D
e|-------------|-----0---0---|-----2---2---|----(0)-(2)--|
b|-----2---2---|-----2---2---|-----3---3---|-3-----------|
g|-----2---2---|-0---0---0---|-0h2-2---2---|-2-----------|
d|-----2---2---|-2-----------|-0-----------|-0---2---4---|
a|-0-----------|-0-----------|-------------|-------------|
e|-------------|-------------|-------------|-------------|


CHORUS [3:13 - 3:35]

   G             F#            A             D
e|(3)----------|(2)----------|(0)----------|----(0)-(2)--|
b|---------3---|---------2---|---------2---|-3-----------|
g|-----4-------|-----3-------|-----2-------|-2-----------| (2 times)
d|-5-----------|-4-----------|-2-----------|-0---2---4---|
a|-------------|-------------|-------------|-------------|
e|-------------|-------------|-------------|-------------|

   A7            A7            A7            A7
e|-------------|-------------|-----0---0---|-----0---0---|
b|-----2---2---|-----2---2---|-----2---2---|-----2---2---|
g|-----0---0---|-----0---0---|-0h2-2---2---|-0h2-2---2---| (4 times)
d|-----2---2---|-----2---2---|-2---2---2---|-2---2---2---|
a|-0-----------|-------------|-------------|-------------|
e|-------------|-0-----------|-------------|-------------|


OUTRO [3:35 - 4:19]

 || A7 ||


COMMENTS: A cool song made up of an old Galway Kinnell poem.
This tablature is pretty accurate, the only thing that might
mess things up are those violin plucks. The timing is a little
off too on a couple sections, but it should give you the basic
feel of the song. And yes, that is an F#, not and F#m.