Action/Adventure Tab

More Andrew Bird Tabs

Artist: Andrew Bird
  Song: Action/Adventure

Tabbed by: csy

Chords used
E  [022100]
G  [310003]
F  [033210]
C  [032010]
Em [022000]

Intro X 2

notes: egb
e|----------------------------------------------|
B|------0-----0----------0-----0----------------|
G|----0-----0-----0----0-----0-----0------------|
D|--2-----2-----2----2-----2-----2--------------|
A|----------------------------------------------|
E|----------------------------------------------|

dgb					
e|------------------------------------|-----------|
B|------0-----0----------0-----0------|--0-0------|
G|----0-----0-----0----0-----0-----0--|------0----|
D|--0-----0-----0----0-----0-----0----|--------0--|
A|------------------------------------|-----------|
E|------------------------------------|-----------|


E				
now if you think im wasting your time again
G
	im wasting your time
E
when you pick me up in duty free
	G			F
thats when i thought id be the cross in your t
E
oh must see tv

E
(nervous gibberish)

E
but if your think im wasting your time again
G
oh your wasting mine
E
when you are playing for prime time dream
		    G
to be see and be seen
	F
now im split in your seam
E
the i in your team

E  G			
oo please don't get to excited
E  G
oo maybe you're not invited
F
to my action adventure
C
my action adventure
E
dream

E G X 2
bridge

E
so when you think you are on the fast track
G
you find that its just a cul-du-sac
		E
back in an adult lifestyle community
		G		F		E
where your little boys your action toys are duty-free

E  G			
oo please don't get to excited
E  G
oo maybe you're not invited
F
to my action adventure
C
my action adventure
E
dream

bridge again

E
so wonder what you got your persona for
G
cause there's a two for one at the corner-store
E
and i wonder could you can pep it up a bit
		G
you know throw a fit
F		E
you go ahead and dance, i'll just sit

E
but if your think im wasting your time again
		G
im wasting your time again
G
oh no you're wasting mine
E
when you are playing for prime time dream
		G
to be see and be seen
	F
now im split in your seam
E
the i in your team

Em

Em						G
im looking at the back of my hand again
Em
im looking at the back of my hand again
G				E
to what end i cant even find my pen
#----------------------------PLEASE NOTE-----------------------------#
# This represents the author's own work and interpretation of the    #
# song. To be used only for private study, scholarship, or research. #
#--------------------------------------------------------------------#

blog comments powered by Disqus